Weezer

home > Weezer

Too Many Thoughts In My Head Bass Tab

Weezer

Difficulty: nolevelnolevel

by aman%5Fclaudino

tuner correct add songbook print version text version save to e-mail
chordsukulelecavacokeyboardtabbassdrumsharmonicsflute Guitar Pro
chords

Too Many Thoughts In My Head

  		
Intro/verse 1 

G|-------0-2-0--------| 
D|-2--2--------2------| 
A|---------------3--2-| (Until "I'm so high on cookies it's insane") 
E|--------------------| 

Pre-Chorus 

G|-4--4--------| 
D|-------4--4--| 
A|-------------| x4 
E|-------------| 

Chorus 

G|-----------------|-4-----7-6----4-2-4-----|------------4-----7-6----4-2-4----| 
D|-2--2--2--2--4---|---5-------7--------2---|-0-2-0--4-----5-------7--------2--| 
A|---------5-5-----|------------------------|----------------------------------| x2 
E|-----------------|------------------------|----------------------------------| 

verse 2 

G|-------0-2-0--------| 
D|-2--2--------2------| 
A|---------------3--2-| (Until "I'm so high on Chopra it's insane") 
E|--------------------| 

Pre-Chorus 

G|-4--4--------| 
D|-------4--4--| 
A|-------------| x4 
E|-------------| 

Chorus 

G|-----------------|-4-----7-6----4-2-4-----|------------4-----7-6----4-2-4----| 
D|-2--2--2--2--4---|---5-------7--------2---|-0-2-0--4-----5-------7--------2--| 
A|---------5-5-----|------------------------|----------------------------------| x2 
E|-----------------|------------------------|----------------------------------| 

Bridge (No Bass) 

Instrumental 

G|---------7-6----6--| 
D|-5--5--5-----7---5-| 
A|-------------------| 
E|-------------------| 

G|---------7-6----6--| 
D|-5-----------7---5-| 
A|-------------------| x3 
E|-------------------| 

Chorus 

G|-----------------|-4-----7-6----4-2-4-----|------------4-----7-6----4-2-4----| 
D|-2--2--2--2--4---|---5-------7--------2---|-0-2-0--4-----5-------7--------2--| 
A|---------5-5-----|------------------------|----------------------------------| x3 
E|-----------------|------------------------|----------------------------------| 

Outro 

G|--------------------------4----------7-6---------------| 
D|-2--2--2--0-2-0--4--4--4-----5--5--5-----7---9---------| 
A|-------------------------------------------------------| 
E|-------------------------------------------------------| 
	  

Search Paypal
auto scroll beats size up size down change color hide chords drawings
tab show chords e-chords YouTube Clip e-chords hide all tabs e-chords go to top tab