Weezer

home > Weezer

The good life Bass Tab

Weezer

Difficulty: nolevelnolevel

by Seitoshi

tuner correct add songbook print version text version save to e-mail
chordsukulelecavacokeyboardtabbassdrummharmonicsflute Guitar Pro
chords

The good life

  		INTRO: 
Gb|----------------| 
Db|o--------------o| 
Ab|o--------------o| 
Eb|---3--3-3---0---| 

VERSE PART A: 
Gb|---------------------------------------------------------| 
Db|o-------------------------------------------------------o| 
Ab|o-----------------5--5-5-5-5----------------------------o| 
Eb|---3--3-3-3---0----------------5--5-5-5-5---0--0-0-0-0---| 

VERSE PART B:			   VERSE PART C: 
Gb|-------------------------------|-----------------------------------------| 
Db|o-----------------------------o|-----------------------------------------| 
Ab|o---------5--5----------2--2--o|----------5--5---------/14-14-14-14-14---| 
Eb|---3--3----------5--5----------|---3--3----------5--5--------------------| 
				Then.. 

Chorus: 
Gb|------------------------------------------------------------------------| 
Db|o----------------------------------------------------------------------o| 
Ab|o--3-3-3-3-3-3-3-3--5-5-5-5-5-5-5-5------------------------------------o| 
Eb|-------------------------------------5-5-5-5-5-5-5-5--0-0-0-0-0-0-0-0---| 

Gb|-------------------------------------------------------------------------| 
Db|o-----------------------------------------------------------------------o| 
Ab|o----------------------5-5-5-5-5-5-5-5----------------------------------o| 
Eb|---5-5-5-5-5-5-5-5--7-------------------3-3-3-3-3-3-3-3--0-0-0-0-0-0-0-0-| 

Gb|-----------------------------| 
Db|-----------------------------| 
Ab|---14-14-14-14-14-14-14-14---| 
Eb|-----------------------------| 
	  

Search Paypal
auto scroll beats size up size down change color hide chords drawings
tab show chords e-chords YouTube Clip e-chords hide all tabs e-chords go to top tab