Weezer

home > Weezer

American Gigolo Bass Tab

Weezer

Difficulty: nolevelnolevel

by Seitoshi

tuner correct add songbook print version text version save to e-mail
chordsukulelecavacokeyboardtabbassdrumsharmonicsflute Guitar Pro
chords

American Gigolo

  		e-mail:[email protected] 

Tuning: E, A, D, G 

Intro/Verse/outro 
|------------------------------------------------------------| 
|------------------------------------------------------------| 
|--5-5-6-6-7-7-7-7-------------------------------------------| 
|-------------------5-5--6-6-7-7-7-7-------------------------| 



Pre Chorus "keep on, keep on, keep on" 

|------------------------------------------------------------| 
|------------------------------------------------------------| 
|-------5-5-5-5-5-5-5-5-5-5-5-5-5----------------------------| 
|----------------------------------3-3-----------------------| 

Chorus "IF you want me you can have me..... there is a lot of little hammer  
ons you can hear in this part. 

|------------------------------------------------------------| 
|------------------------------------------------------------| 
|--5-5h6-5--5-5-5-5h6----5-5-5-5h6-5-5-5h6-5-5-5-5h6---------| 
|------------------------------------------------------------| 

Other part of Chorus "My love walked right through your door" 


|---------------------------------------------------------------| 
|---------------------------------------------------------------| 
|-5-5-5-5-5-----------------------5-5-5-5-2-2-2-2---------------| 
|-----------3-3-3-3-3-3-3-5-5-5-5----------------3-3-3-3-5-5-5-5| 


|---------------------------------------------------------------| 
|---------------------------------------------------------------| 
|-5-5-5h7--5----------------------5-5-5-5-2-2-2-2---------------| 
|-----------3-3-3-3h4-3-3-3-5-5-5-5--------------3-3-3-3-3-3-3-3|
	  

Full key step upFull key step up
Half key step upHalf key step up
Half key step downHalf key step down
Full key step downFull key step down
Search Paypal
auto scroll beats size up size down change color hide chords drawings
tab show chords e-chords YouTube Clip e-chords hide all tabs e-chords go to top tab