Waterparks

Blonde

Waterparks

bass

by  GUSTSILVA

save to print version add songbook text version e-mail correct tuner
chordsukulelecavacokeyboardtabbassdrumsharmonicaflute Guitar Pro
close

there isn't a video lesson for this song

chords

Blonde

	  		Verse 

G|-----------------------| 
D|-----------------------| 
A|-------------5-5-------|  4x 
E|-3-3---7-7---------5-5-| 


Pre-Chorus 

G|--------------------------------------| 
D|--------------------------------------| 
A|--------------------------------------| 
E|-3------5------7------5------3------5-| 


Chorus 

G|-----------------------------------------------------------------| 
D|-----------------------------------------------------------------| 
A|---------------------------------5-5-5-5-5-5-5-5-----------------| 
E|-7-7-7-7-7-7-7-7-3-3-3-3-3-3-3-3-----------------5-5-5-5-5-5-5-5-| 

G|-----------------------------------------------------------------| 
D|-----------------------------------------------------------------| 
A|---------------------------------5-5-5-5-5-5-5-5-----------------| 
E|-7-7-7-7-7-7-7-7-3-3-3-3-3-3-3-3-----------------5-5-5-5-6-6-6-6-| 

G|-----------------------------------------------------------------| 
D|-----------------------------------------------------------------| 
A|---------5-5-5-5-------------------------5-5-5-5-----------------| 
E|-7-7-7-7---------5-5-5-5-7-7-7---7-7-7-7---------5-5-5-5-7-7-7-7-| 

G|-----------------------------------------------------------------| 
D|-----------------------------------------------------------------| 
A|---------------------------------5-5-5-5-5-5-5-5-----------------| 
E|-7-7-7-7-7-7-7-7-3-3-3-3-3-3-3-3-----------------5-5-5-5-6-6-6-6-| 

G|---------------------------------------------------------------------| 
D|---------------------------------------------------------------------| 
A|---------------------------------------------------------------------| 
E|-7--\--3--7--\--3-3--3-3-3-3-3-3-3-7--\--3--7--\--3-3--3-3-3-3-3-3-3-| 


verse 2 

G|-----------------------| 
D|-----------------------| 
A|-------------5-5-------|  4x 
E|-3-3---7-7---------5-5-| 


Pre-Chorus 2 

G|--------------------------------------| 
D|--------------------------------------| 
A|--------------------------------------| 
E|-3------5------7------5------3------5-| 


Chorus 2 

G|-----------------------------------------------------------------| 
D|-----------------------------------------------------------------| 
A|---------------------------------5-5-5-5-5-5-5-5-----------------| 
E|-7-7-7-7-7-7-7-7-3-3-3-3-3-3-3-3-----------------5-5-5-5-5-5-5-5-| 

G|-----------------------------------------------------------------| 
D|-----------------------------------------------------------------| 
A|---------------------------------5-5-5-5-5-5-5-5-----------------| 
E|-7-7-7-7-7-7-7-7-3-3-3-3-3-3-3-3-----------------5-5-5-5-6-6-6-6-| 

G|-----------------------------------------------------------------| 
D|-----------------------------------------------------------------| 
A|---------5-5-5-5-------------------------5-5-5-5-----------------| 
E|-7-7-7-7---------5-5-5-5-7-7-7---7-7-7-7---------5-5-5-5-7-7-7-7-| 

G|-----------------------------------------------------------------| 
D|-----------------------------------------------------------------| 
A|---------------------------------5-5-5-5-5-5-5-5-----------------| 
E|-7-7-7-7-7-7-7-7-3-3-3-3-3-3-3-3-----------------5-5-5-5-6-6-6-6-| 

G|-------------------------------------------------------------------| 
D|-------------------------------------------------------------------| 
A|-------------------------------------------------------------------| 
E|-7--\--3--7--\--3-3--3-3-3-3-3-3-3-5-5-5-5-5-5-5-5-5-5-5-5-5-6-6-6-| 


Bridge 

G|-------------------------------------------------------------| 
D|-------------------------------------------------------------| 
A|-------------------------------------------------------------| 
E|-7-7-7-7-3-3-3-3-2-2-2-2-5-5-5-5-7-7-7-7-3-3-3-3-2-2-2-2-5-5-| 

G|-----------------------------------------------------------------| 
D|-----------------------------------------------------------------| 
A|-----------------------------------------------------------------| 
E|-7-7-7-7-3-3-3-3-2-2-2-2-5-5-5-5-3-3-3-3-3-3-3-3-5-5-5-5-5-5-5-5-| 


Pre-Chorus 3 

G|------------------------------------------------------------------------| 
D|------------------------------------------------------------------------| 
A|-/-10-\-----------------------------------------------------------------| 
E|--------3-3-3-3-3-3-3-3-3-3-3-3-3-3-3-3-3-3-3-3-3-3-3-3-5-5-5-5-5-5-5-5-| 


Chorus 3 

G|-----------------------------------------------------------------| 
D|-----------------------------------------------------------------| 
A|---------------------------------5-5-5-5-5-5-5-5-----------------| 
E|-7-7-7-7-7-7-7-7-3-3-3-3-3-3-3-3-----------------5-5-5-5-5-5-5-5-| 

G|-----------------------------------------------------------------| 
D|-----------------------------------------------------------------| 
A|---------------------------------5-5-5-5-5-5-5-5-----------------| 
E|-7-7-7-7-7-7-7-7-3-3-3-3-3-3-3-3-----------------5-5-5-5-6-6-6-6-| 

G|-----------------------------------------------------------------| 
D|-----------------------------------------------------------------| 
A|-----------------------------------------5-5-5-5-----------------| 
E|-----------------------------7---7-7-7-7---------5-5-5-5-7-7-7-7-| 

G|-----------------------------------------------------------------| 
D|-----------------------------------------------------------------| 
A|---------------------------------5-5-5-5-5-5-5-5-----------------| 
E|-7-7-7-7-7-7-7-7-3-3-3-3-3-3-3-3-----------------5-5-5-5-6-6-6-6-| 

G|-----------------------------------------------------------------| 
D|-----------------------------------------------------------------| 
A|-----------------------------------------------------------------| 
E|-3---------------------------------------------------------------| 


************************************ 

| /   Slide up 
| \   Slide down 

************************************ 
		  

See also:

bass Deep Purple - Smoke On The Waterr bass Deep Purple - Knocking At Your Back Door bass Deep Purple - Space Truckin' bass Deep Purple - Burn Ver.(2) bass Deep Purple - Black Night bass Deep Purple - Ted The Mechanic
e-chords

Other versions:

bass Waterparks - Blonde bass Everclear - Blondes
auto scroll beats size up size down change color hide chords drawings
tab show chords e-chords YouTube Clip e-chords hide all tabs e-chords go to top tab

share