Waterparks

Beating Heart Baby

Waterparks

bass nolevel nolevel

by  FERNSANTANA

save to print version add songbook text version e-mail correct tuner
chordsukulelecavacokeyboardtabbassdrumsharmonicaflute Guitar Pro
close

there isn't a video lesson for this song

chords

Beating Heart Baby

	  		
Verse 

G|------------------------------/17p16-|-------------------------------------| 
D|-/10----12--10--14--17--19--17-------|----------------5--------------------| 
A|----10-------------------------------|-3--5--3h5p3--7---7------------------| 
E|-------------------------------------|-------------------------8\----------| 

G|---------------------------------------------------------------------------| 
D|-/10----12--10h12p10--14--17--19--17--12--12h14--12--10/-------------------| 
A|----10---------------------------------------------------------------------| 
E|---------------------------------------------------------------------------| 

G|---------------------------------------------------------------------------| 
D|---5------7-------10--9----------------------------------------------------| 
A|-3---3--5---5--7---------7---3/7\3-----------------------------------------| 
E|---------------------------------------------------------------------------| 

G|-------------------------------17p16-|-------------------------------------| 
D|-/10----12--10--14--17--19--17-------|----------------5--------------------| 
A|----10-------------------------------|-3--5--3h5p3--7---7------------------| 
E|-------------------------------------|------------------------8\-----------| 


Chorus 

G|---------------------------------------------------------------------------| 
D|-10----12--10h12p10--14--17--19--17--12--12h14--12--10/--------------------| 
A|----10---------------------------------------------------------------------| 
E|---------------------------------------------------------------------------| 

G|---------------------------------------------------------------------------| 
D|---5------7-------10--9----------------------------------------------------| 
A|-3---3--5---5--7---------7---3/7\3-----------------------------------------| 
E|---------------------------------------------------------------------------| 


Instrumental 

G|------------------------------/17p16-|-------------------------------------| 
D|-/10----12--10--14--17--19--17-------|----------------------5--------------| 
A|-----10------------------------------|-3--5--3h5p3--7--7--7---7------------| 
E|-------------------------------------|-----------------------------8\------| 


Verse 

G|---------------------------------------------------------------------------| 
D|-/10----10h12--10h12p10--14--17--19--17--12--12h14--12-10\-----------------| 
A|-----10--------------------------------------------------------------------| 
E|---------------------------------------------------------------------------| 

G|---------------------------------------------------------------------------| 
D|---5------7-------10--9----------------------------------------------------| 
A|-3---3--5---5--7---------7---3/7\3-----------------------------------------| 
E|---------------------------------------------------------------------------| 

G|------------------------------/17p16-|-------------------------------------| 
D|-/10----12--10--14--17--19--17-------|----------------5--------------------| 
A|----10-------------------------------|-3--5--3h5p3--7---7------------------| 
E|-------------------------------------|-------------------------8\----------| 


Chorus 

G|---------------------------------------------------------------------------| 
D|-10----12--10h12p10--14--17--19--17--12--12h14--12--10/--------------------| 
A|----10---------------------------------------------------------------------| 
E|---------------------------------------------------------------------------| 

G|---------------------------------------------------------------------------| 
D|---5------7-------10--9----------------------------------------------------| 
A|-3---3--5---5--7---------7---3/7\3-----------------------------------------| 
E|---------------------------------------------------------------------------| 

G|------------------------------/17p16-|-------------------------------------| 
D|-/10----12--10--14--17--19--17-------|----------------5--------------------| 
A|----10-------------------------------|-3--5--3h5p3--7---7------------------| 
E|-------------------------------------|-------------------------8\----------| 


Outro 

G|---------------------------------------------------------------------------| 
D|-10----12--10h12p10--14--17--19--17--12--12h14--12--10--12-----------------| 
A|----10---------------------------------------------------------------------| 
E|---------------------------------------------------------------------------| 

G|---------------------------------------------------------------------------| 
D|---5------7-------10--9----------------------------------------------------| 
A|-3---3--5---5--7---------7-------------------------------------------------| 
E|---------------------------------------------------------------------------| 


*********************************** 

| h   Hammer-on 
| p   Pull-off 
| /   Slide up 
| \   Slide down 

************************************ 
		  

See also:

bass Deep Purple - Smoke On The Water (ver. 3) bass Deep Purple - Ted The Mechanic bass Deep Purple - Fire Ball bass Deep Purple - Black Night bass Deep Purple - Lady Double Dealer bass Deep Purple - Knocking At Your Back Door
e-chords

Other versions:

bass Waterparks - Beating Heart Baby
auto scroll beats size up size down change color hide chords drawings
tab show chords e-chords YouTube Clip e-chords hide all tabs e-chords go to top tab

share with facebook