Walk The Moon

Feels Good To Be High

Walk The Moon

bass

by  SABRJOAO

save to print version add songbook text version e-mail correct tuner
chordsukulelecavacokeyboardtabbassdrumsharmonicaflute Guitar Pro
close

there isn't a video lesson for this song

chords

Feels Good To Be High

	  		
Verse 
0:07 
"...lightning bolt strikes..." 
G|---------------------------------------------------------------------------| 
D|---------------------------------------------------------------------------| 
A|-----------5-----5-4-------------------------------------------------------| 
E|---7---5-7-----7-----7-5--2---0-2-5---0-2-5--2-----------------------------| 
                                                                               (x2) 
G|---------------------------------------------------------------------------| 
D|---------------------------------------------------------------------------| 
A|-----------5-----5-4-------------------------------------------------------| 
E|---7---5-7-----7-----7-5--2---0-2-5---0-2-5-2-5----------------------------| 

Pre-Chorus 
0:38 
"...feeling love, I feel alive..." 
G|---------------------------------------------------------------------------| 
D|---------------------------------------------------------------------------| 
A|---------------------------------------------------------------------------| 
E|---3----2-3-3--2-3-3--3-5----3-5-5--3-5-5--5-------------------------------| 

G|---------------------------------------------------------------------------| 
D|--------------------------------------7------------------------------------| 
A|------------------------------------7--------------------------------------| 
E|---3----2-3-3--2-3-3--3-5~-------------------------------------------------| 

Chorus 
0:57 
"...high..." 
G|-------------11------------------------------14----------------------------| 
D|--------------------------------------------------------9------------------| 
A|------9--12----------12--7-9-7-9------9--12----------9----12-7-9-----------| 
E|---7--------------7----------------7--------------7------------------------| 
                                                                               (x2) 
G|-------------14------------------------------14----------------------------| 
D|---------------------------------------------------------------------------| 
A|------9--12----------9----------------9--12----------9--9-7----------------| 
E|---2/-------------2/---------------2/-------------2/--------10-9-----------| 

Verse 
1:28 
"...you could be..." 
G|---------------------------------------------------------------------------| 
D|---------------------------------------------------------------------------| 
A|-----------5-----5-4-------------------------------------------------------| 
E|---7---5-7-----7-----7-5--2---0-2-5---0-2-5--2-----------------------------| 
                                                                               (x2) 
G|---------------------------------------------------------------------------| 
D|---------------------------------------------------------------------------| 
A|-----------5-----5-4-------------------------------------------------------| 
E|---7---5-7-----7-----7-5--2---0-2-5---0-2-5-2-5----------------------------| 

Pre-Chorus 
2:00 
"...feeling love, I feel alive..." 
G|---------------------------------------------------------------------------| 
D|---------------------------------------------------------------------------| 
A|---------------------------------------------------------------------------| 
E|---3----2-3-3--2-3-3--3-5----3-5-5--3-5-5--5-------------------------------| 

G|---------------------------------------------------------------------------| 
D|--------------------------------------7------------------------------------| 
A|------------------------------------7--------------------------------------| 
E|---3----2-3-3--2-3-3--3-5~-------------------------------------------------| 

Chorus 
2:18 
"...high..." 
G|-------------11------------------------------14----------------------------| 
D|--------------------------------------------------------9------------------| 
A|------9--12----------12--7-9-7-9------9--12----------9----12-7-9-----------| 
E|---7--------------7----------------7--------------7------------------------| 
                                                                               (x2) 
G|-------------14------------------------------14----------------------------| 
D|---------------------------------------------------------------------------| 
A|------9--12----------9----------------9--12----------9--9-7----------------| 
E|---2/-------------2/---------------2/-------------2/--------10-9-----------| 

Interlude/Chorus 
3:12 
G|-------------11------------------------------14----------------------------| 
D|--------------------------------------------------------9------------------| 
A|------9--12----------12--7-9-7-9------9--12----------9----12-7-9-----------| 
E|---7--------------7----------------7--------------7------------------------| 
                                                                               (x4) 
G|-------------14------------------------------14----------------------------| 
D|---------------------------------------------------------------------------| 
A|------9--12----------9----------------9--12----------9--9-7----------------| 
E|---2/-------------2/---------------2/-------------2/--------10-9-----------| 



************************************ 

| /   Slide up 
| \   Slide down 
| ~   Vibrato 

************************************ 
		  

See also:

bass Hilary Duff - Our Lips Our Sealed bass KC and The Sunshine Band - That's The Way (I Like It) bass Stevie Wonder - Superstition bass Delirious - Fire bass Naked Brothers Band - Cool Hat Cool Braces bass My Chemical Romance - Helena
e-chords

Other versions:

bass Walk The Moon - Feels Good To Be High
auto scroll beats size up size down change color hide chords drawings
tab show chords e-chords YouTube Clip e-chords hide all tabs e-chords go to top tab

share