Vocaloid

Ikanaide

Vocaloid

bass

by  ABELAMIN

save to print version add songbook text version e-mail correct tuner
chordsukulelecavacokeyboardtabbassdrumsharmonicaflute Guitar Pro
close

there isn't a video lesson for this song

chords

Ikanaide

	  		
Intro 
G|----------------------|-------------------------| 
D|----------------------|-------------------------| 
A|-12---12---12-12-12---|-12-12-12-12-12-12-10-10-| 
E|----------------------|-------------------------| 

G|------------------|-----------------------|------------------|-------------------| 
D|-----------10-9---|------------12-10-9----|-7---7---7-10-9-7-|------------10-9---| 
A|-8---8---8------8-|-10------10---------10-|-------7----------|-7---7-10-7------7-| 
E|-------8----------|------10---------------|------------------|-------------------| 

G|------------------|-----------------------|--------------------|--------------------| 
D|-----------10-9---|------------12-10-9----|-10---10-9---10-9---|-10---10-9---10-9---| 
A|-8---8---8------8-|-10------10---------10-|-----------7------7-|-----------7------7-| 
E|-------8----------|------10---------------|--------------------|--------------------| 

G|------------------|-----------------------|------------------|-------------------| 
D|-----------10-9---|------------12-10-9----|-7---7---7-10-9-7-|------------10-9---| 
A|-8---8---8------8-|-10------10---------10-|-------7----------|-7---7-10-7------7-| 
E|-------8----------|------10---------------|------------------|-------------------| 

G|------------------|-----------------------|-------------------|-----------------| 
D|-------9---10-9---|------------12-10-9----|-7---7---7-10-10---|-7-7-7-7-7---5---| 
A|-8---8---8------8-|-10------10---------10-|-------7---------7-|-----------------| 
E|------------------|------10---------------|-------------------|-----------------| 

Verse 
G|-----------------|------------------------|-----------------|-----------------| 
D|-----------------|------------------------|-7---7-7-7-7-7-7-|-7---7-7-7-7-7-7-| 
A|-8---8-8-8-8-8-8-|-10---10-10-10-10-10-10-|-----------------|-----------------| x2 
E|-----------------|------------------------|-----------------|-----------------| 

G|-----------------|------------------------|-----------------|------------------------| 
D|-----------------|------------------------|-7---7-7-7-7-7-7-|-10---10-10-10-10-10-10-| 
A|-8---8-8-8-8-8-8-|-10---10-10-10-10-10-10-|-----------------|------------------------| 
E|-----------------|------------------------|-----------------|------------------------| 

G|-----------------|------------------------|-----------------|------------------| 
D|-----------------|------------------------|-7---7-7-7-7-7-7-|------------------| 
A|-8---8-8-8-8-8-8-|-10---10-10-10-10-10-10-|-----------------|-7---7---7---10---| 
E|-----------------|------------------------|-----------------|------------------| 

G|------------------|------------------------|------------------------|------------------| 
D|-------------10---|------------------12----|------------------14----|-------------10---| 
A|-8---8-8-8-8----8-|-10---10-10-10-10----10-|-12---12-12-12-12----12-|-7---7-7-7-7----7-| x3 
E|------------------|------------------------|------------------------|------------------| 

G|-----------------|------------------------| 
D|-----------------|------------------------| 
A|-8---8-8-8-8-8-8-|-10---10-10-10-10-10-10-| 
E|-----------------|------------------------| 

Chorus 
G|--------------------|----------------------|----------------------|--------------------| 
D|-----10-10-----10---|------12-12-10--------|------10-10-12---10---|-----10-10----------| 
A|-8------------------|-10--------------10---|-12-------------------|-7---------10---7---| 
E|-----------8--------|----------------------|----------------------|--------------------| 

G|--------------------|----------------------|----------------------|----------------------| 
D|-----10-10-----10---|------12-12-10--------|------10-10-12---14---|------10-10-12--------| 
A|-8---------8--------|-10--------------10---|-12-------------------|-10--------------10---| 
E|--------------------|----------------------|----------------------|----------------------| 

G|-------------------|---------------------|---------------------|-------------------| 
D|-----12-12-12------|-----12-12-12--------|-----10-10-----------|-7---9-9-10--------| 
A|-9--------------9--|-8--------------10---|-7---------10---10---|--------------10---| 
E|-------------------|---------------------|---------------------|-------------------| 

G|-----------------|---------------------|------------------------|-----------------------| 
D|-----------------|---------------------|------------------------|-----------------------| 
A|-8-----------8---|-10-------------10---|-12---12-12-12-12-12-12-|-12-12-12-12----0-10---| 
E|-----8---8-------|------10---10--------|------------------------|-----------------------| 

Pre verse 
G|------------------|-----------------------|------------------|-------------------| 
D|-----------10-9---|------------12-10-9----|-7---7---7-10-9-7-|------------10-9---| 
A|-8---8---8------8-|-10------10---------10-|-------7----------|-7---7-10-7------7-| x3 
E|-------8----------|------10---------------|------------------|-------------------| 

G|------------------|-----------------------|-------------------|-----------------| 
D|-----------10-9---|------------12-10-9----|-7---7---7-10-10---|-7-7-7-7-7---5---| 
A|-8---8---8------8-|-10------10---------10-|-------7---------7-|-----------------| 
E|-------8----------|------10---------------|-------------------|-----------------| 

2nd verse 
G|-----------------|------------------------|-----------------|-----------------| 
D|-----------------|------------------------|-7---7-7-7-7-7-7-|-7---7-7-7-7-7-7-| 
A|-8---8-8-8-8-8-8-|-10---10-10-10-10-10-10-|-----------------|-----------------| x2 
E|-----------------|------------------------|-----------------|-----------------| 

G|-----------------|------------------------|-----------------|-----------------| 
D|-----------------|------------------------|-7---7-7-7-7-7-7-|-----------------| 
A|-8---8-8-8-8-8-8-|-10---10-10-10-10-10-10-|-----------------|-7---7-7-7-7-7-7-| 
E|-----------------|------------------------|-----------------|-----------------| 

G|-----------------|------------------------|-----------------|------------------| 
D|-----------------|------------------------|-7---7-7-7-7-7-7-|------------------| 
A|-8---8-8-8-8-8-8-|-10---10-10-10-10-10-10-|-----------------|-7---7---7---10---| 
E|-----------------|------------------------|-----------------|------------------| 

G|------------------|------------------------|------------------------|------------------| 
D|-------------10---|------------------12----|------------------14----|-------------10---| 
A|-8---8-8-8-8----8-|-10---10-10-10-10----10-|-12---12-12-12-12----12-|-7---7-7-7-7----7-| x3 
E|------------------|------------------------|------------------------|------------------| 

G|-----------------|---------------------| 
D|-----------------|---------------------| 
A|-8---8-8-8-8-8-8-|-10---10-10-10-10----| 
E|-----------------|---------------------| 

2nd Chorus 
G|--------------------|----------------------|----------------------|--------------------| 
D|-----10-10-----10---|------12-12-10--------|------10-10-12---10---|-----10-10----------| 
A|-8------------------|-10--------------10---|-12-------------------|-7---------10---7---| 
E|-----------8--------|----------------------|----------------------|--------------------| 

G|--------------------|----------------------|----------------------|----------------------| 
D|-----10-10-----10---|------12-12-10--------|------10-10-12---14---|------10-10-12--------| 
A|-8---------8--------|-10--------------10---|-12-------------------|-10--------------10---| 
E|--------------------|----------------------|----------------------|----------------------| 

G|--------------------|----------------------|----------------------|--------------------| 
D|-----10-10-----10---|------12-12-10--------|------10-10-12---10---|-----10-10----------| 
A|-8------------------|-10--------------10---|-12-------------------|-7---------10---7---| 
E|-----------8--------|----------------------|----------------------|--------------------| 

G|-----------------|---------------------|-------------------|--------------------| 
D|-----------------|---------------------|-----12---12-------|-----12---12--------| 
A|-8-----------8---|-10-------------10---|-9-------------9---|-8-------------10---| 
E|-----8---8-------|------10---10--------|-------------------|--------------------| 

G|--------------------|-------------------|-----------------|---------------------| 
D|-----10-------------|-7---9---10--------|-----------------|---------------------| 
A|-7--------10---10---|--------------10---|-8-----------8---|-10-------------10---| 
E|--------------------|-------------------|-----8---8-------|------10---10--------| 

G|------------------------|-----------------------| 
D|------------------------|-----------------------| 
A|-12---12-12-12-12-12-12-|-12-12-12-12----0-10---| 
E|------------------------|-----------------------| 

End 
G|------------------|-----------------------|------------------|-------------------| 
D|-----------10-9---|------------12-10-9----|-7---7---7-10-9-7-|------------10-9---| 
A|-8---8---8------8-|-10------10---------10-|-------7----------|-7---7-10-7------7-| x3 
E|-------8----------|------10---------------|------------------|-------------------| 

G|------------------|-----------------------|-------------------|-----------------| 
D|-------9---10-9---|------------12-10-9----|-7---7---7-10-10---|-7-7-7-7-7---5---| 
A|-8---8---8------8-|-10------10---------10-|-------7---------7-|-----------------| 
E|------------------|------10---------------|-------------------|-----------------| 

G|-----------------------| 
D|-----------------------| 
A|-8~--------------------| 
E|-----------------------| 


************************************ 

| ~ Vibrato 

************************************ 
		  

See also:

bass Matsuda Seiko - Cherry Blossom bass Shonen Knife - Top Of The World bass Vocaloid - Ikanaide bass Matsuda Seiko - Sailing bass Matsuda Seiko - North Wind bass Matsuda Seiko - Meditation
e-chords

Other versions:

bass Vocaloid - Ikanaide
auto scroll beats size up size down change color hide chords drawings
tab show chords e-chords YouTube Clip e-chords hide all tabs e-chords go to top tab

share