Vaya Con Dios

home > Vaya Con Dios

Time Flies Bass Tab

Vaya Con Dios

Difficulty: nolevelnolevel

by robepoiel

tuner correct add songbook print version text version save to e-mail
chordsukulelecavacokeyboardtabbassdrumsharmonicsflute Guitar Pro
chords

Time Flies

  		
Intro 

G|-------------------------------| 
D|-------------------------------| 
A|-------------------------------| 
E|0---0---0---0---0---0---0------| 
  ^   ^   ^   ^   ^   ^   ^   ^ 
verse 1 

G|---------------|---------------|---------------|---------------|---------------|---------------| 
D|---------------|---------------|---------------|---------------|---------------|---------------| 
A|---------------|---------------|------------0--|2-------2---2--|----2---2------|2---2-------2--| 
E|0-------0---0--|----0---0------|0---0----------|---------------|---------------|---------------| 
  ^   ^   ^   ^   ^   ^   ^   ^   ^   ^   ^   ^   ^   ^   ^   ^   ^   ^   ^   ^   ^   ^   ^   ^    
G|---------------|---------------|---------------|---------------|---------------|---------------| 
D|---------------|---------------|---------------|---------------|---------------|---------------| 
A|---------------|---------------|------------0--|2-------2---2--|----2---2------|2---2-------2--| 
E|0-------0---0--|----0---0------|0---0----------|---------------|---------------|---------------| 
  ^   ^   ^   ^   ^   ^   ^   ^   ^   ^   ^   ^   ^   ^   ^   ^   ^   ^   ^   ^   ^   ^   ^   ^ 
G|---------------|---------------|---------------|---------------|---------------|---------------| 
D|---------------|---------------|---------------|---------------|---------------|---------------| 
A|3-------3---3--|----3---3------|3---3-------3--|---------------|---------------|------------2--| 
E|---------------|---------------|---------------|0-------0---0--|----0---0------|0---0----------| 
  ^   ^   ^   ^   ^   ^   ^   ^   ^   ^   ^   ^   ^   ^   ^   ^   ^   ^   ^   ^   ^   ^   ^   ^ 
G|---------------|---------------|---------------|---------------|---------------|---------------| 
D|---------------|---------------|---------------|---------------|---------------|---------------| 
A|3-------3---3--|----3---3------|3---3-------3--|---------------|---------------|--------0---2--| 
E|---------------|---------------|---------------|0-------0---0--|----0---0------|0---3----------| 
  ^   ^   ^   ^   ^   ^   ^   ^   ^   ^   ^   ^   ^   ^   ^   ^   ^   ^   ^   ^   ^   ^   ^   ^ 
verse 2 

G|---------------|---------------|---------------|---------------|---------------|---------------| 
D|---------------|---------------|0---2---4---5--|---------------|---------------|--------2---4--| 
A|---------------|---------------|---------------|2-------2---2--|----2---2------|2---2----------| 
E|0-------0---0--|----0---0------|---------------|---------------|---------------|---------------| 
  ^   ^   ^   ^   ^   ^   ^   ^   ^   ^   ^   ^   ^   ^   ^   ^   ^   ^   ^   ^   ^   ^   ^   ^    
G|---------------|---------------|---------------|---------------|---------------|---------------| 
D|---------------|---------------|2---2---4---5--|---------------|---------------|---------------| 
A|---------------|---------------|---------------|2-------2---2--|----2---2------|2---2---0------| 
E|0-------0---0--|----0---0------|---------------|---------------|---------------|------------3--| 
  ^   ^   ^   ^   ^   ^   ^   ^   ^   ^   ^   ^   ^   ^   ^   ^   ^   ^   ^   ^   ^   ^   ^   ^    
G|---------------|---------------|---------------|---------------|---------------|---------------| 
D|---------------|---------------|---------------|---------------|---------------|---------------| 
A|3-------3---3--|----3---3------|3---3-------2--|---------------|---------------|--------0---2--| 
E|---------------|---------------|---------------|0-------0---0--|----0---0------|0---3----------| 
  ^   ^   ^   ^   ^   ^   ^   ^   ^   ^   ^   ^   ^   ^   ^   ^   ^   ^   ^   ^   ^   ^   ^   ^ 
G|---------------|---------------|---------------|---------------|---------------|---------------| 
D|---------------|---------------|---------------|---------------|---------------|---------------| 
A|3-------3---3--|----3---3------|3---3-------3--|---------------|---------------|--------0---2--| 
E|---------------|---------------|---------------|0-------0---0--|----0---0------|0---3----------| 
  ^   ^   ^   ^   ^   ^   ^   ^   ^   ^   ^   ^   ^   ^   ^   ^   ^   ^   ^   ^   ^   ^   ^   ^ 

Chorus 

G|---------------|---------------|---------------|---------------|---------------|---------------| 
D|---------------|---------------|---------------|---------------|---------------|---------------| 
A|---------------|--------5------|---------------|3--------------|--------3------|3---3---2---0--| 
E|3--------------|---------------|---------------|---------------|---------------|---------------| 
  ^   ^   ^   ^   ^   ^   ^   ^   ^   ^   ^   ^   ^   ^   ^   ^   ^   ^   ^   ^   ^   ^   ^   ^ 
G|---------------|---------------|---------------|---------------|---------------|---------------| 
D|---------------|---------------|---------------|---------------|---------------|---------------| 
A|---------------|--------5------|---------------|---------------|---------------|---------------| 
E|3--------------|---------------|---------------|5--------------|----5---5---5--|5---5---5---5--| 
  ^   ^   ^   ^   ^   ^   ^   ^   ^   ^   ^   ^   ^   ^   ^   ^   ^   ^   ^   ^   ^   ^   ^   ^ 
G|---------------|---------------|---------------|---------------|---------------|---------------| 
D|---------------|---------------|---------------|---------------|---------------|---------------| 
A|---------------|--------5------|5---5-------5--|---------------|---------------|---------------| 
E|0-------0---0--|----0----------|---------------|3-----------5--|--------0------|0---0-------0--| 
  ^   ^   ^   ^   ^   ^   ^   ^   ^   ^   ^   ^   ^   ^   ^   ^   ^   ^   ^   ^   ^   ^   ^   ^ 
G|---------------|---------------|---------------|---------------|---------------|---------------| 
D|---------------|---------------|---------------|---------------|---------------|---------------| 
A|---------------|---------------|---------------|5-------5---5--|----5----------|---------------| 
E|0-------0---0--|----0---0------|0---0-------0--|---------------|--------3------|----5----------| 
  ^   ^   ^   ^   ^   ^   ^   ^   ^   ^   ^   ^   ^   ^   ^   ^   ^   ^   ^   ^   ^   ^   ^   ^ 
G|---------------|---------------| 
D|---------------|---------------| 
A|---------------|---------------| 
E|7---7---7---7--|7---7---7------| 
  ^   ^   ^   ^   ^   ^   ^   ^ 

Solo 

G|---------------|---------------|---------------|---------------|---------------|---------------| 
D|---------------|---------------|----2---4---5--|---------------|---------------|--------0---2--| 
A|---------------|---------------|---------------|2-------2---2--|----2---2------|2---2----------| 
E|0-------0---0--|----0---0------|0--------------|---------------|---------------|---------------| 
  ^   ^   ^   ^   ^   ^   ^   ^   ^   ^   ^   ^   ^   ^   ^   ^   ^   ^   ^   ^   ^   ^   ^   ^    
G|---------------|---------------|---------------|---------------|---------------|---------------| 
D|---------------|---------------|--------4---5--|---------------|---------------|---------------| 
A|---------------|---------------|---------------|2-------2---2--|----2---2------|2---2---0---2--| 
E|0-------0---0--|----0---0------|0---0----------|---------------|---------------|---------------| 
  ^   ^   ^   ^   ^   ^   ^   ^   ^   ^   ^   ^   ^   ^   ^   ^   ^   ^   ^   ^   ^   ^   ^   ^    
G|---------------|---------------|---------------|---------------|---------------|---------------| 
D|---------------|---------------|---------------|---------------|---------------|---------------| 
A|3-------3---3--|----3---3------|3---3-------3--|---------------|---------------|--------0---2--| 
E|---------------|---------------|---------------|0-------0---0--|----0---0------|0---3----------| 
  ^   ^   ^   ^   ^   ^   ^   ^   ^   ^   ^   ^   ^   ^   ^   ^   ^   ^   ^   ^   ^   ^   ^   ^ 
G|---------------|---------------|---------------|---------------|---------------|---------------| 
D|---------------|---------------|---------------|---------------|---------------|---------------| 
A|3-------3---3--|----3---3------|3---3-------2--|---------------|---------------|------------2--| 
E|---------------|---------------|---------------|0-------0---0--|----0---0------|0---5---3------| 
  ^   ^   ^   ^   ^   ^   ^   ^   ^   ^   ^   ^   ^   ^   ^   ^   ^   ^   ^   ^   ^   ^   ^   ^ 
verse 3 

G|---------------|---------------|---------------|---------------|---------------|---------------| 
D|---------------|---------------|----2---4---5--|---------------|---------------|--------2---4--| 
A|---------------|---------------|---------------|2-------2---2--|----2---2------|2---2----------| 
E|0-------0---0--|----0---0------|0--------------|---------------|---------------|---------------| 
  ^   ^   ^   ^   ^   ^   ^   ^   ^   ^   ^   ^   ^   ^   ^   ^   ^   ^   ^   ^   ^   ^   ^   ^    
G|---------------|---------------|---------------|---------------|---------------|---------------| 
D|---------------|---------------|2---2---4---5--|---------------|---------------|---------------| 
A|---------------|---------------|---------------|2-------2---2--|----2---2------|2---2---0---2--| 
E|0-------0---0--|----0---0------|---------------|---------------|---------------|---------------| 
  ^   ^   ^   ^   ^   ^   ^   ^   ^   ^   ^   ^   ^   ^   ^   ^   ^   ^   ^   ^   ^   ^   ^   ^    
G|---------------|---------------|---------------|---------------|---------------|---------------| 
D|---------------|---------------|---------------|---------------|---------------|---------------| 
A|3-------3---3--|----3---3------|3---3-------2--|---------------|---------------|--------0---2--| 
E|---------------|---------------|---------------|0-------0---0--|----0---0------|0---3----------| 
  ^   ^   ^   ^   ^   ^   ^   ^   ^   ^   ^   ^   ^   ^   ^   ^   ^   ^   ^   ^   ^   ^   ^   ^ 
G|---------------|---------------|---------------|---------------|---------------|---------------| 
D|---------------|---------------|---------------|---------------|---------------|---------------| 
A|3-------3---3--|----3---3------|3---3-------3--|---------------|---------------|--------0---2--| 
E|---------------|---------------|---------------|0-------0---0--|----0---0------|0---3----------| 
  ^   ^   ^   ^   ^   ^   ^   ^   ^   ^   ^   ^   ^   ^   ^   ^   ^   ^   ^   ^   ^   ^   ^   ^ 

Chorus 

G|---------------|---------------|---------------|---------------|---------------|---------------| 
D|---------------|---------------|---------------|---------------|---------------|---------------| 
A|---------------|--------5------|---------------|3--------------|--------3------|3---3---2---0--| 
E|3--------------|---------------|---------------|---------------|---------------|---------------| 
  ^   ^   ^   ^   ^   ^   ^   ^   ^   ^   ^   ^   ^   ^   ^   ^   ^   ^   ^   ^   ^   ^   ^   ^ 
G|---------------|---------------|---------------|---------------|---------------|---------------| 
D|---------------|---------------|---------------|---------------|---------------|---------------| 
A|---------------|--------5------|---------------|---------------|---------------|---------------| 
E|3--------------|---------------|---------------|5--------------|----5---5---5--|5---5---5---5--| 
  ^   ^   ^   ^   ^   ^   ^   ^   ^   ^   ^   ^   ^   ^   ^   ^   ^   ^   ^   ^   ^   ^   ^   ^ 
G|---------------|---------------|---------------|---------------|---------------|---------------| 
D|---------------|---------------|---------------|---------------|---------------|---------------| 
A|---------------|--------5------|5---5-------5--|---------------|---------------|---------------| 
E|0-------0---0--|----0----------|---------------|3-----------5--|--------0------|0---0-------0--| 
  ^   ^   ^   ^   ^   ^   ^   ^   ^   ^   ^   ^   ^   ^   ^   ^   ^   ^   ^   ^   ^   ^   ^   ^ 
G|---------------|---------------|---------------|---------------|---------------|---------------| 
D|---------------|---------------|---------------|---------------|---------------|---------------| 
A|---------------|---------------|---------------|5-------5---5--|----5----------|---------------| 
E|0-------0---0--|----0---0------|0---0-------0--|---------------|--------3------|----5----------| 
  ^   ^   ^   ^   ^   ^   ^   ^   ^   ^   ^   ^   ^   ^   ^   ^   ^   ^   ^   ^   ^   ^   ^   ^ 
G|---------------|---------------| 
D|---------------|---------------| 
A|---------------|---------------| 
E|7---7---7---7--|7---7---7------| 
  ^   ^   ^   ^   ^   ^   ^   ^ 
	  

Search Paypal
auto scroll beats size up size down change color hide chords drawings
tab show chords e-chords YouTube Clip e-chords hide all tabs e-chords go to top tab