Unwound

Entirely Different Matters

Unwound

bass nolevel nolevel

by  JOV-CORREA

save to print version add songbook text version e-mail correct tuner
chordsukulelecavacokeyboardtabbassdrumsharmonicaflute Guitar Pro
close

there isn't a video lesson for this song

chords

Entirely Different Matters

	  		
verse 1 
G|--------------------------|--------------------------| 
D|o-------------------------|-------------0--2--0-----o| x 6 
A|o--4--4--4--2--4--4--4--2-|----------------------2--o| 
E|--------------------------|-3--3--3--3---------------| 

Chorus 1 
G|--------------------------|------------------------|------------------------|------------------------| 
D|o-------------------------|------------------------|------------------------|------------------------| 
A|o--4--4--4--2--4--5-------|-4--4--4--2--4--5-------|-4--4--4--2--4--5-------|-4--4--4--2--4--5-------| 
E|--------------------------|------------------------|------------------------|------------------------| 

G|------------------------|-------------------------| 
D|------------------------|-------------------------o| x 2 
A|----5--5--5--5--5--5--5-|----7--7--7--7--5--5--5--o| 
E|------------------------|--------------------------| 

verse 2 
G|--------------------------|--------------------------| 
D|o-------------------------|-------------0--2--0-----o| x 4 
A|o--4--4--4--2--4--4--4--2-|----------------------2--o| 
E|--------------------------|-3--3--3--3---------------| 

Chorus 2 
G|--------------------------|------------------------|------------------------|------------------------| 
D|o-------------------------|------------------------|------------------------|------------------------| 
A|o--4--4--4--2--4--5-------|-4--4--4--2--4--5-------|-4--4--4--2--4--5-------|-4--4--4--2--4--5-------| 
E|--------------------------|------------------------|------------------------|------------------------| 

G|------------------------|--------------------------| 
D|------------------------|-------------------------o| x 2 
A|----5--5--5--5--5--5--5-|----7--7--7--7--5--5--5--o| 
E|------------------------|--------------------------| 

verse 3 
G|--------------------------|--------------------------| 
D|o-------------------------|-------------0--2--0-----o| x 8 
A|o--4--4--4--2--4--4--4--2-|----------------------2--o| 
E|--------------------------|-3--3--3--3---------------| 

Outro 
G|------------------------|------------------------|------------------------|------------------------| 
D|------------------------|------------------------|------------------------|------------------------| 
A|-1--1--1--1--1--1--1--1-|-1--1--1--1--1--1--1--1-|-0--0--0--0--0--0--0--0-|------------------------| 
E|------------------------|------------------------|------------------------|-4--4--4--4--4--4--4--4-| 

G|------------------------| 
D|------------------------| 
A|------------------------| 
E|-3~~~-------------------| 



****************************** 

Legend: 
~ - Let ring 

****************************** 
		  

See also:

bass A Perfect Circle - 3 Libras bass Guns N' Roses - Welcome To The Jungle (ver. 2) bass Guns N' Roses - Breakdown bass Guns N' Roses - Nightrain bass Creed - One Last Breath( ver. 2) bass Guns N' Roses - Welcome To The Jungle (ver. 3)
e-chords

Other versions:

bass Unwound - Entirely Different Matters
auto scroll beats size up size down change color hide chords drawings
tab show chords e-chords YouTube Clip e-chords hide all tabs e-chords go to top tab

share with facebook