Unknown Mortal Orchestra

home > Unknown Mortal Orc...

Ffunny Ffriends Bass Tab

Unknown Mortal Orchestra

Difficulty: nolevelnolevel

by alyslima

tuner correct add songbook print version text version save to e-mail
chordsukulelecavacokeyboardtabbassdrumsharmonicsflute Guitar Pro
chords

Ffunny Ffriends

  		----------------------------------------------------------------- 
FFUNNY FFRIENDS - Unknown Mortal Orchestra 
----------------------------------------------------------------- 

Tabbed By: bassgarden 
e-mail: [email protected] 

Intro 

G|--------|--------|--------|--------|--------|--------| 
D|--------|--------|--------|--------|--------|--------| 
A|2-2-----|2-2-----|2-2---2-|2-2-----|2-2---2-|2---2---| 
E|--------|--------|--------|--------|--------|--------| 

G|--------|--------|--------|--------| 
D|--------|--------|--------|--------| 
A|--------|--------|--------|--------| 
E|2-2-----|2-2-2---|2-2-2---|2-2---2-| 

G|--------|--------|--------|--------|--------|--------| 
D|--------|--------|--------|--------|--------|--------| 
A|2-2-----|2-2-----|2-2---2-|2-2-----|2-2---2-|2---2---| 
E|--------|--------|--------|--------|--------|--------| 

G|--------|--------|--------|--------| 
D|--------|--------|--------|--------| 
A|--------|--------|--------|--------| 
E|2-2-----|2-2-2---|2-------|--------| 

Verse 0:29 

G|--------|--------|--------|--------|--------|--------|--------|--------| 
D|--------|--------|--------|--------|--------|--------|--------|--------| 
A|--------|--------|2-2-----|2-2---2-|--------|--------|2-2-----|2-2---2-| 
E|2-2-----|2-2---2-|--------|--------|2-2-----|2-2---2-|--------|--------| 

G|--------|--------|--------|--------|--------|--------|--------|--------| 
D|--------|--------|--------|--------|--------|--------|--------|--------| 
A|--------|--------|1-1-----|1-1---1-|2-2-----|2-2---2-|2-2-----|2-2---2-| 
E|4-4-----|4-4-----|--------|--------|--------|--------|--------|--------| 

Chorus 0:50 

G|--------|--------|--------|--------|--------|--------| 
D|--------|--------|--------|--------|--------|--------| 
A|2-2-----|2-2-----|2-2---2-|2-2-----|2-2---2-|2---2---| 
E|--------|--------|--------|--------|--------|--------| 

G|--------|--------|--------|--------| 
D|--------|--------|--------|--------| 
A|--------|--------|--------|--------| 
E|2-2-----|2-2-2---|2-2-2---|2-2---2-| 

G|--------|--------|--------|--------|--------|--------| 
D|--------|--------|--------|--------|--------|--------| 
A|2-2-----|2-2-----|2-2---2-|2-2-----|2-2---2-|2---2---| 
E|--------|--------|--------|--------|--------|--------| 

G|--------|--------|--------|--------| 
D|--------|--------|--------|--------| 
A|--------|--------|--------|--------| 
E|2-2-----|2-2-2---|2-------|--------| 

verse 1:17 

G|--------|--------|--------|--------|--------|--------|--------|--------| 
D|--------|--------|--------|--------|--------|--------|--------|--------| 
A|--------|--------|2-2-----|2-2---2-|--------|--------|2-2-----|2-2---2-| 
E|2-2-----|2-2---2-|--------|--------|2-2-----|2-2---2-|--------|--------| 

G|--------|--------|--------|--------|--------|--------|--------|--------| 
D|--------|--------|--------|--------|--------|--------|--------|--------| 
A|--------|--------|1-1-----|1-1---1-|2-2-----|2-2---2-|2-2-----|2-2---2-| 
E|4-4---4-|4-4-----|--------|--------|--------|--------|--------|--------| 

Chorus 1:38 

G|--------|--------|--------|--------|--------|--------| 
D|--------|--------|--------|--------|--------|--------|  \ 
A|2-2-----|2-2-----|2-2---2-|2-2-----|2-2---2-|2---2---| 
E|--------|--------|--------|--------|--------|--------|    \ 

G|--------|--------|--------|--------|                        \ 
D|--------|--------|--------|--------| 
A|--------|--------|--------|--------|                          \ 
E|2-2-----|2-2-2---|2-2-2---|2-2---2-| 
                                                                  x2 
G|--------|--------|--------|--------|--------|--------|         
D|--------|--------|--------|--------|--------|--------|        / 
A|2-2-----|2-2-----|2-2---2-|2-2-----|2-2---2-|2---2---|       
E|--------|--------|--------|--------|--------|--------|      / 
                                                             
G|--------|--------|--------|--------|                      / 
D|--------|--------|--------|--------|                     
A|--------|--------|--------|--------|                    / 
E|2-2-----|2-2-2---|2-------|--------|                    

Bridge 2:31 

G|--------|--------|--------|--------|--------|--------| 
D|--------|--------|--------|--------|--------|--------| 
A|2-2-----|2-2-----|2-2---2-|2-2-----|2-2---2-|2---2---| 
E|--------|--------|--------|--------|--------|--------| 

G|--------|--------|--------|--------| 
D|--------|--------|--------|--------| 
A|--------|--------|--------|--------| 
E|2-2-----|2-2-2---|2-2-2---|2-2---2-| 

G|--------|--------|--------|--------|--------|--------| 
D|--------|--------|--------|--------|--------|--------| 
A|2-2-----|2-2-----|2-2---2-|2-2-----|2-2---2-|2---2---| 
E|--------|--------|--------|--------|--------|--------| 

G|--------|--------|--------|--------| 
D|--------|--------|--------|--------| 
A|--------|--------|--------|--------| 
E|2-2-----|2-2-2---|2-------|--------| 

Chorus 2:57 

G|--------|--------|--------|--------|--------|--------| 
D|--------|--------|--------|--------|--------|--------| 
A|2-2-----|2-2-----|2-2---2-|2-2-----|2-2---2-|2---2---| 
E|--------|--------|--------|--------|--------|--------| 

G|--------|--------|--------|--------| 
D|--------|--------|--------|--------| 
A|--------|--------|--------|--------| 
E|2-2-----|2-2-2---|2-2-2---|2-2---2-| 

G|--------|--------|--------|--------|--------|--------| 
D|--------|--------|--------|--------|--------|--------| 
A|2-2-----|2-2-----|2-2---2-|2-2-----|2-2---2-|2---2---| 
E|--------|--------|--------|--------|--------|--------| 

G|--------|--------|--------|--------| 
D|--------|--------|--------|--------| 
A|--------|--------|--------|--------| 
E|2-2-----|2-2-2---|2-----2-|2-2---4-| 

Outro - Fade Out Lats Few Repeats 3:24 

G|--------|--------|--------|--------|--------|--------| 
D|--------|--------|--------|--------|--------|--------| \ 
A|2-2-----|2-2-----|2-2---2-|2-2-----|2-2---2-|2---2---|  \ 
E|--------|--------|--------|--------|--------|--------|   \ 
                                                            x5 
G|--------|--------|--------|--------|                     / 
D|--------|--------|--------|--------|                    / 
A|--------|--------|--------|--------|                   / 
E|2-2-----|2-2-2---|2-2-2---|2-2---2-| 
	  

Search Paypal
auto scroll beats size up size down change color hide chords drawings
tab show chords e-chords YouTube Clip e-chords hide all tabs e-chords go to top tab