Ultraje a Rigor

home > Ultraje a Rigor

Chiclete Bass Tab

Ultraje a Rigor

Difficulty: ExpertExpert

by MoRtE%2D

tuner correct add songbook print version text version save to e-mail
chordsukulelecavacokeyboardtabbassdrumsharmonicsflute Guitar Pro
chords

Chiclete

(Edgard Scandurra)

  		A cifras estão na ordem em que a musica é tocada. 
 
G--------------------------------------------------------- 
D---0-4-7-5-4-2-------------------------------------------    6x       
A---------------0-4-7-0-4-7-------------------------------  
E--------------------------------------------------------- 
 
G--------------------------------------------------------- 
D---------------------------------------------------------    5x      
A---------------------------------------------------------  
E---2-2-2-2--3-3-3-3--5-5-5-5-5-5-5-5--------------------- 
 
G--------------------------------------------------------- 
D---0-4-7-5-4-2-------------------------------------------    4x       
A---------------0-4-7-0-4-7-------------------------------  
E--------------------------------------------------------- 
 
G--------------------------------------------------------- 
D------------0-0-0-0--------------------------------------    2x      
A--------------------0-0-0-0------------------------------  
E---3-3-3-3----------------------------------------------- 
 
G--------------------------------------------------------- 
D---------------------0-0-0-0-0-0-0-0--------------------- 
A----0-0-0-0-0-0-0-0--------------------------------------  
E--------------------------------------------------------- 
 
G--------------------------------------------------------- 
D---0-4-7-5-4-2-------------------------------------------    4x       
A---------------0-4-7-0-4-7-------------------------------  
E--------------------------------------------------------- 
 
G--------------------------------------------------------- 
D---------------------------------------------------------    4x      
A---------------------------------------------------------  
E---2-2-2-2--3-3-3-3--5-5-5-5-5-5-5-5--------------------- 
 
G--------------------------------------------------------- 
D---0-4-7-5-4-2-------------------------------------------    4x       
A---------------0-4-7-0-4-7-------------------------------  
E--------------------------------------------------------- 
 
G--------------------------------------------------------- 
D------------0-0-0-0--------------------------------------    2x      
A--------------------0-0-0-0------------------------------  
E---3-3-3-3----------------------------------------------- 
 
G--------------------------------------------------------- 
D---------------------0-0-0-0-0-0-0-0---------------------    7x 
A----0-0-0-0-0-0-0-0--------------------------------------  
E--------------------------------------------------------- 
	  

Search Paypal
auto scroll beats size up size down change color hide chords drawings
tab show chords e-chords YouTube Clip e-chords hide all tabs e-chords go to top tab