Two Door Cinema Club

home > Two Door Cinema Cl...

Sucker Bass Tab

Two Door Cinema Club

Difficulty: nolevelnolevel

by adalgomes

tuner correct add songbook print version text version save to e-mail
chordsukulelecavacokeyboardtabbassdrumsharmonicsflute Guitar Pro
chords

Sucker

  		
2nd half of verse 1 
G|------|------|------|------|------|------|------|------| 
D|------|------|--7---|--7---|------|------|--4---|--4---| 
A|222---|222---|-7----|-7----|------|------|-4----|-4----| 
E|------|------|5-----|5-----|222---|000---|2-----|2-----| 

Chorus 
G|--------|--------|--------|--------|--------|--------|--------|--------| 
D|--------|--------|--------|--------|--------|--------|2--2----|--------| 
A|--------|2---2---|--------|2---2---|--------|2---2---|--------|5---5---| 
E|2---2---|--------|2---2---|--------|2---2---|--------|--------|--------| 

Break 
Swing it 
G|------|------|------|------|------|-------|------|------|------|------|------| 
D|-----2|4-----|------|-----2|4-----|-------|-----2|4-----|-----0|2--5-5|---7-7| 
A|---24-|---42-|02---0|---24-|---42-|0-2-4-0|---24-|---42-|02-4--|------|5-----| 
E|2-----|------|------|2-----|------|-------|2-----|------|------|------|------| 

verse 2 
G|------|------|------|------|---9--|---7--|---11--|-------| 
D|---9--|---9--|---7--|---79-|------|------|-------|-------| 
A|------|------|------|-----9|7-7---|5-5---|9-9---9|99-11--|    
E|7-7--7|77----|5-5--5|55----|------|------|-------|------9| 


G|------|------|------|------|---9--|---7--|------|------| 
D|---9--|------|---7--|---4-5|------|------|------|---24-| 
A|------|------|------|------|7-7--5|5-----|9-99-9|4----4|    
E|7----7|77-7--|5----5|55--2-|------|------|------|------| 

Chorus & Break x 2 (was previously Break)  
G|------|------|------|------|------|-------|------|------|------|------|------| 
D|-----2|4-----|------|-----2|4-----|-------|-----2|4-----|-----0|2--5-5|---7-7| 
A|---24-|---42-|02---0|---24-|---42-|0-2-4-0|---24-|---42-|02-4--|------|5-----| 
E|2-----|------|------|2-----|------|-------|2-----|------|------|------|------| 

B- Section 
G|------|------|------|------|------|------|------|------| 
D|------|------|------|------|------|------|5-55--|5-55--| 
A|5-55--|7-----|2-22-2|22-22-|5-55--|7-----|------|------| 
E|------|--00--|------|------|------|--00--|------|------| 

G|------|------|------|------|------|------|------|------| 
D|------|------|------|------|------|------|------|------| 
A|5-55--|7-----|------|------|------|------|------|------| 
E|------|--00--|2-22--|3-33--|5-55--|5--5--|------|------| 

Outro x 3 (Same as Chorus 

G|------|------|------|------|------|-------|------|------|------|------|------| 
D|-----2|4-----|------|-----2|4-----|-------|-----2|4-----|-----0|2--5-5|---7-7| 
A|---24-|---42-|02---0|---24-|---42-|0-2-4-0|---24-|---42-|02-4--|------|5-----| 
E|2-----|------|------|2-----|------|-------|2-----|------|------|------|------| 
	  

Search Paypal
auto scroll beats size up size down change color hide chords drawings
tab show chords e-chords YouTube Clip e-chords hide all tabs e-chords go to top tab