Tony Joe White

Polk Salad Annie

Tony Joe White

bass

by  ROBEPOIEL

save to print version add songbook text version e-mail correct tuner
chordsukulelecavacokeyboardtabbassdrumsharmonicaflute Guitar Pro
close

there isn't a video lesson for this song

chords

Polk Salad Annie

	  		Gtr I (E A D G) - 'Norbert Putnam - Bass' 

  Intro 
  Q=134 
  4/4 
  Gtr I 
     E E E E E E E E   E E E E E E E E   E E E E E E E E   E E E E E E E E  7x 
G||------------------|-----------------|-----------------|------------------|| 
D||o-----------------|-----------------|-----------------|-----------------o|| 
A||o-7-7-7-7-7-7-7-7-|-7-7-7-7-7-7-7-7-|-7-7-7-7-7-7-7-7-|-7-7-7-7-7-7-7-7-o|| 
E||------------------|-----------------|-----------------|------------------|| 


                    1st Verse 
   E E E E E E E E    E E E S S E E E E   E E E S S E E E E   E E E S S E E E E 
G|-----------------||-----9-------------|-----9-------------|-----9-------------| 
D|-----------------||-------6-6-6-7-8-9-|-------6-6-6-7-8-9-|-------6-6-6-7-8-9-| 
A|-7-7-7-7-7-7-7-7-||-7-7---------------|-7-7---------------|-7-7---------------| 
E|-----------------||-------------------|-------------------|-------------------| 


   E E E S S E E E E   E E E S S E E E E   E E E S S E E E E   q  Q  H 
G|-----9-------------|-----9-------------|-----9-------------|------------| 
D|-------6-6-6-7-8-9-|-------6-6-6-7-8-9-|-------6-6-6-7-8-9-|------------| 
A|-7-7---------------|-7-7---------------|-7-7---------------|-7----------| 
E|-------------------|-------------------|-------------------|------------| 


                   Chorus 
   Q  E E E E E E    Q  Q  E E E E   +Q   E. S E E E E 
G|----------------||---------------|-------------------| 
D|----7-6---------||----7------4---|------7------------| 
A|--------7-5-----||-------4-7---0-|-(0)-----0-4-5-6-7-| 
E|------------7-5-||-5-------------|-------------------| 


   E E E S S E E E E   E E E S S E E E E 
G|-----9-------------|-----9----------------| 
D|-------6-6-6-7-8-9-|-------6-6-6-7-8-9----| 
A|-7-7---------------|-7-7------------------| 
E|-------------------|----------------------| 


    Q   E. S E  E  E  E    Q   E. S  E  E  E  E 
G|-----12---------------|-----14----------------| 
D|---------x-9-10-11-12-|---------x-11-12-13-14-| 
A|-10-------------------|-12--------------------| 
E|----------------------|-----------------------| 


    Q   E. S E  E  E  E    Q   E  E  E  E  Q 
G|-----12---------------|-----14-12-------------|| 
D|---------x-9-10-11-12-|-----------14-11-------|| 
A|-10-------------------|-12--------------12\---|| 
E|----------------------|-----------------------|| 


 Interlude 
   Q  E S S E E E E   Q  E S S E E E E 
G|----9-------------|----9-------------| 
D|------6-6-6-7-8-9-|------6-6-6-7-8-9-| 
A|-7----------------|-7----------------| 
E|------------------|------------------| 


     Q  E S S E E E E   Q  E S S E E E E 
G||-----9-------------|----9---------------|| 
D||o------6-6-6-7-8-9-|------6-6-6-7-8-9--o|| 
A||o-7----------------|-7-----------------o|| 
E||-------------------|--------------------|| 


 2nd Verse 
   E E E S S E E E E   E E E S S E E E E 
G|-----9-------------|-----9-------------| 
D|-------6-6-6-7-8-9-|-------6-6-6-7-8-9-| 
A|-7-7---------------|-7-7---------------| 
E|-------------------|-------------------| 


   E E E S S E E E E   E E E S S E E E E 
G|-----9-------------|-----9--------------| 
D|-------6-6-6-7-8-9-|-------6-6-6-7-8-9--| 
A|-7-7---------------|-7-7----------------| 
E|-------------------|--------------------| 


   E E E S S E E E E   E E E S S E E E E   q  Q  H      Q  Q  Q  Q 
G|-----9-------------|-----9-------------|------------|--------------|| 
D|-------6-6-6-7-8-9-|-------6-6-6-7-8-9-|------------|----7---------|| 
A|-7-7---------------|-7-7---------------|-7----------|-------5------|| 
E|-------------------|-------------------|------------|----------7---|| 


 Chorus 
   Q  E. S E E E E   +Q   E. S E E E E   E E E S S E E E E   E E E S S E E E E 
G|-----------------|-------------------|-----9-------------|-----9--------------| 
D|----7------------|------7------------|-------6-6-6-7-8-9-|-------6-6-6-7-8-9--| 
A|-------0-4-5-7-0-|-(0)-----0-4-5-6-7-|-7-7---------------|-7-7----------------| 
E|-5---------------|-------------------|-------------------|--------------------| 


    Q   E. S E  E  E  E    Q   E. S  E  E  E  E 
G|-----12---------------|-----14----------------| 
D|---------x-9-10-11-12-|---------x-11-12-13-14-| 
A|-10-------------------|-12--------------------| 
E|----------------------|-----------------------| 


    Q   E. S E  E  E  E    Q  E.  S S  S E  E E 
G|-----12---------------|-----x----------9------|| 
D|---------x-9-10-11-12-|-----------9-11---11-9-|| 
A|-10-------------------|-12-----12-------------|| 
E|----------------------|-----------------------|| 


 Interlude 
   E E E S S E E E E   E E E S S E E E E 
G|-----9-------------|-----9-------------| 
D|-------6-6-6-7-8-9-|-------6-6-6-7-8-9-| 
A|-7-7---------------|-7-7---------------| 
E|-------------------|-------------------| 


     E E E S S E E E E   E E E S S E E E E   4x 
G||------9-------------|-----9---------------|| 
D||o-------6-6-6-7-8-9-|-------6-6-6-7-8-9--o|| 
A||o-7-7---------------|-7-7----------------o|| 
E||--------------------|---------------------|| 


  Harmonica Solo 
     E E E S S E E E E   E E E S S E E E E  3x E E E S S E E E E 
G||------9-------------|-----9--------------||-----9--------------|| 
D||o-------6-6-6-7-8-9-|-------6-6-6-7-8-9-o||-------6-6-6-7-8-9--|| 
A||o-7-7---------------|-7-7---------------o||-7-7----------------|| 
E||--------------------|--------------------||--------------------|| 


 3rd Verse 
   E  E  E. S S S E E E   Q  E. S S S E E E 
G|-------9--------------|----9--------------| 
D|----------x-6-6-7-8-9-|-------x-6-6-7-8-9-| 
A|-7--x-----------------|-7-----------------| 
E|----------------------|-------------------| 


   Q  E. S S S E E E   Q  E. S S S E E E 
G|----9--------------|----9---------------| 
D|-------x-6-6-7-8-9-|-------x-6-6-7-8-9--| 
A|-7-----------------|-7------------------| 
E|-------------------|--------------------| 


   E  E  E. S S S E E E   Q  E. S S S E E E   q  Q  H      Q  Q  Q  Q 
G|-------9--------------|----9--------------|------------|--------------|| 
D|----------x-6-6-7-8-9-|-------x-6-6-7-8-9-|------------|----7---------|| 
A|-7--x-----------------|-7-----------------|-7----------|-------5------|| 
E|----------------------|-------------------|------------|----------7---|| 


 Chorus 
   Q  E. S E E E E   +E  E E. S E E E E 
G|-----------------|--------------------| 
D|----7------------|-------7------------| 
A|-------0-4-5-7-0-|-(0)-0----x-4-5-6-7-| 
E|-5---------------|--------------------| 


   E E E S S E E E E   E E E S S E E E E 
G|-----9-------------|-----9--------------| 
D|-------6-6-6-7-8-9-|-------6-6-6-7-8-9--| 
A|-7-7---------------|-7-7----------------| 
E|-------------------|--------------------| 


    Q   E. S E  E  E  E    Q   E. S  E  E  E  E 
G|-----12---------------|-----14----------------| 
D|---------x-9-10-11-12-|---------x-11-12-13-14-| 
A|-10-------------------|-12--------------------| 
E|----------------------|-----------------------| 


    Q   E. S E  E  E  E    Q   E. S  E  E  E  E 
G|-----12---------------|-----14-----------------| 
D|---------x-9-10-11-12-|---------x-11-12-13-14--| 
A|-10-------------------|-12---------------------| 
E|----------------------|------------------------| 


 Interlude 
   Q  E S S S S E E E   Q  E S S S S E E E 
G|----9---------------|----9---------------| 
D|------6-6---6-7-8-9-|------6-6---6-7-8-9-| 
A|-7------------------|-7------------------| 
E|--------------------|--------------------| 


   Q  E S S S S E E E   Q  E S S S S E E E 
G|----9---------------|----9-----------------|| 
D|------6-6---6-7-8-9-|------6-6---6-7-8-9---|| 
A|-7------------------|-7--------------------|| 
E|--------------------|----------------------|| 


  Outro 
     Q  E S S S S E E E   Q  E S S S S E E E  8x Q  E S S S S E E E 
G||-----9---------------|----9----------------||----9----------------*| 
D||o------x-6---6-7-8-9-|------x-6---6-7-8-9-o||------x-6---6-7-8-9--*| 
A||o-7------------------|-7------------------o||-7-------------------*| 
E||---------------------|---------------------||---------------------*| 

************************************ 
Duration Legend 

W - whole; H - half; Q - quarter; E - 8th; S - 16th; a - acciaccatura;  
+ - note tied to previous; . - note dotted; 
Duration letters will always appear directly above the note/fret number it represents the 
duration for.  Duration letters with no fret number below them represent rests. 
Uncapitalized letters represent notes that are staccato (1/2 duration).  

|  (n)  -  note tied to previous 
|   \   -  slide out of (to "nowhere") 
|   x   -  muted  
************************************ 
		  

Full key step upFull key step up
Half key step upHalf key step up
Half key step downHalf key step down
Full key step downFull key step down
auto scroll beats size up size down change color hide chords drawings
tab show chords e-chords YouTube Clip e-chords hide all tabs e-chords go to top tab

share