Tonight Alive

Thank You And Goodnight

Tonight Alive

bass Expert expert

by  BRUNBLAZKOWSKI

save to print version add songbook text version e-mail correct tuner
chordsukulelecavacokeyboardtabbassdrumsharmonicaflute Guitar Pro
close

there isn't a video lesson for this song

chords

Thank You And Goodnight

	  		

Intro These are 11s (elevens) not 1s (ones). 
G|----------------------------------------------------| 
D|----------------------------------------------------| 
A|---------13-13-13-11-11-11--------13/15\13-11-11-11-| 
E|-11-11-11-----------------11-11-11------------------| 

Verse 
G|---------------------------------------------| 
D|---------------------------------------------| 
A|-66666-666688888-8888333333-3333-------------| x2 
E|--------------------------------444444-4444--| 

Chorus 
G|------------------------------------------| 
D|------------------------------------------| 
A|-66666666---------------------------------| x2 
E|---------33333333444444446-6-6-6-6-6-6-6--| 

Play Intro once 
Verse 
G|--------------------------------------------| 
D|--------------------------------------------| 
A|-66666-666688888-8888333333-3333------------| 
E|--------------------------------444444-4444-| 

G|----------------------------------| 
D|----------------------------------| 
A|-666666668888888833333333---------| 
E|-------------------------44444444-| 

Play Chorus 
Bride 
D|---------------------------------| 
G|---------------------------------| 
A|-6-6-6-3-3-3---------------------| 
E|-------------3-3-3-4-4-4-4-------| 

D|-------------------------------------------------------------------| 
G|-------------------------------------------------------------------| 
A|-6-6-6-3-3-3----------------------6666666633333333-----------------| 
E|-------------3-3-3-4-44-4-44----------------------3333333344444444-| 


Chorus 
D|---------------------------------------------------------------------| 
G|---------------------------------------------------------------------| 
A|-66666-----------------------------66666666--------------------------| 
E|--------33333-4444444466666666-------------33333333-4444444466666666-| 

Play Chorus I showed earlier 

Outro (same as intro, just end on a different note) 

G|------------------------------------------------------| 
D|------------------------------------------------------| 
A|---------13-13-13-11-11-11--------13/15\13-11-11-11-6-| 
E|-11-11-11-----------------11-11-11--------------------| 
		  

auto scroll beats size up size down change color hide chords drawings
tab show chords e-chords YouTube Clip e-chords hide all tabs e-chords go to top tab

share