Tom Petty

home > Tom Petty

Hard On Me Bass Tab

Tom Petty

Difficulty: nolevelnolevel

by victborges

tuner correct add songbook print version text version save to e-mail
chordsukulelecavacokeyboardtabbassdrumsharmonicsflute Guitar Pro
chords

Hard On Me

	    Intro 
  Q=73 
  4/4 
  Gtr I 
   Q.   E H      H    E Q  E   Q.   E H      H    E Q  E 
G|--------5----|-7-----------|--------5----|-7-----------|| 
D|-5----5------|-----------3-|-5----5------|-----------3-|| 
A|-------------|------5-5----|-------------|------5-5----|| 
E|-------------|-------------|-------------|-------------|| 


    1st - 4th Verses 
    Segno $ 
    Segno Segno $$ 
     Q.   E H      H    E Q  E   Q.   E H      H    E E E E 
G||---------5----|-7-----------|--------5----|-7-------------| 
D||o-5----5------|-----------3-|-5----5------|----------3-4--| 
A||o-------------|------5-5----|-------------|------5-5------| 
E||--------------|-------------|-------------|---------------| 


   Q.   E H      H    E Q.     Q.   E E Q. 
G|-------------|-------------|---------------| 
D|-5----5------|-------------|---------------| 
A|--------3----|-5----5-5----|-3----3-3-3----| 
E|-------------|-------------|---------------| 


                                 1. 
                        To Coda 
   Q.   E +H       H    E Q  E    Q.   E +H 
G|---------------|--------------|----------------|| 
D|---------------|-----------0--|-1-------------o|| 
A|-6-------------|-3----3-3-----|------1-(1)----o|| 
E|------6-(6)----|--------------|----------------|| 


                   Bridge 
  2.,D.S. 
   Q.   Q.   E E    Q.   E Q.   E   Q.   E E E E E   H    E Q  E 
G|---------------||---------------|----------------|-------------| 
D|-1-------------||---------------|--------3-2-0---|-------------| 
A|------1------1-||---------------|-5----5---------|-------------| 
E|-----------1---||-5----5-5----5-|--------------3-|-5----5-5--3-| 


   Q.   E Q  E E   Q.   E E Q  E   Q.   E +H       Q.   E +H 
G|---------------|---------------|---------------|---------------| 
D|---------------|---------------|---------------|---------------| 
A|---------------|---------------|-5-------------|-3----2-(2)----| 
E|-1----1-1--3-4-|-5----5-5-5--5-|------3-(3)----|---------------| 


              Outro 
D.S.          Coda & 
D.S.S. al Coda 
   W           Q.   E +E  E E E   Q.   E E Q  E   Q.   E +Q.   E 
G|----------||------------------|---------------|----------------| 
D|----------||-1----------------|-------------0-|-1--------------| 
A|-3--------||------1-(1)-1-1-1-|-3----3-3-3----|------1-(1)-----| 
E|----------||------------------|---------------|--------------1-| 


  Q.   E E E E E   H    E E E E   Q.   E E E Q    W 
G|----------------|--------------|--------5-5-5--|------*| 
D|----------------|----------3-4-|-5----5--------|------*| 
A|--------3-3---3-|-5----5-5-----|---------------|-5----*| 
E|-3----3-----3---|--------------|---------------|------*| 

************************************ 
Duration Legend 

W - whole; H - half; Q - quarter; E - 8th; S - 16th; a - acciaccatura;  
+ - note tied to previous; . - note dotted; 
Duration letters will always appear directly above the note/fret number it represents the 
duration for.  Duration letters with no fret number below them represent rests. 
Uncapitalized letters represent notes that are staccato (1/2 duration).  

|  (n)  -  note tied to previous 
************************************* 
	  

there isn't a video lesson for this song

request
Full key step upFull key step up
Half key step upHalf key step up
Half key step downHalf key step down
Full key step downFull key step down
Search Paypal
auto scroll beats size up size down change color hide chords drawings
tab show chords e-chords YouTube Clip e-chords hide all tabs e-chords go to top tab