Thee Oh Sees

home > Thee Oh Sees

No Spell Bass Tab

Thee Oh Sees

Difficulty: nolevelnolevel

by hugo%5Frodrigues

tuner correct add songbook print version text version save to e-mail
chordsukulelecavacokeyboardtabbassdrumsharmonicsflute Guitar Pro
chords

No Spell

  		
0:00-0:13 
G|------------------------------------------------------------------------------------| 
D|------------------------------------------------------------------------------------| 
A|-8-8-8-8-8-8-8-8-8-8-8-8-8-8-8-8-8-8-8-8-8-8-8-8-8~---------------------------------| 
E|------------------------------------------------------------------------------------| 

0:19-1:17 
G|-----10~-----10~-----10~-----10~-10-8-----------------------------------------------| 
D|--------------------------------------10-8------------------------------------------| 
A|-8-8-----8-8-----8-8-----8-8--------------------------------------------------------| 
E|------------------------------------------------------------------------------------| 

1:17-1:22 
G|-----10~-----10~-----10~------------------------------------------------------------| 
D|----------------------------------6-8-----------------------------------------------| 
A|-8-8-----8-8-----8-8-----8-8-8-10---------------------------------------------------| 
E|------------------------------------------------------------------------------------| 

1:22-1:32 
G|------------------------------------------------------------------------------------|(x2) 
D|-----------------10-10-10-10-10-10-10-10-------------8-8-8-8------------------------| 
A|-8-8-8-8-8-8-8-8-------------------------11-11-11-11---------8-8-8-8-8-8-8-8--------| 
E|------------------------------------------------------------------------------------| 

1:32-2:34 
G|-----10~-----10~-----10~-----10~-10-8-----------------------------------------------| 
D|--------------------------------------10-8------------------------------------------| 
A|-8-8-----8-8-----8-8-----8-8--------------------------------------------------------| 
E|------------------------------------------------------------------------------------| 

2:34-2:39 
G|-----10~-----10~-----10~------------------------------------------------------------| 
D|----------------------------------6-8-----------------------------------------------| 
A|-8-8-----8-8-----8-8-----8-8-8-10---------------------------------------------------| 
E|------------------------------------------------------------------------------------| 

2:39-2:49 
G|------------------------------------------------------------------------------------|(x2) 
D|-----------------10-10-10-10-10-10-10-10-------------8-8-8-8------------------------| 
A|-8-8-8-8-8-8-8-8-------------------------11-11-11-11---------8-8-8-8-8-8-8-8--------| 
E|------------------------------------------------------------------------------------| 

2:50-4:16 
G|-----10~-----10~-----10~------------------------------------------------------------| 
D|----------------------------------6-8-----------------------------------------------| 
A|-8-8-----8-8-----8-8-----8-8-8-10---------------------------------------------------| 
E|------------------------------------------------------------------------------------| 

4:17-4:26 
G|-----10~----------------------------------------------------------------------------| 
D|------------------------------------------------------------------------------------| 
A|-8-8--------------------------------------------------------------------------------| 
E|------------------------------------------------------------------------------------|  
	  

Search Paypal
auto scroll beats size up size down change color hide chords drawings
tab show chords e-chords YouTube Clip e-chords hide all tabs e-chords go to top tab