Thee Oh Sees

Nite Expo

Thee Oh Sees

bass

by  LINEKERS

save to print version add songbook text version e-mail correct tuner
chordsukulelecavacokeyboardtabbassdrumsharmonicaflute Guitar Pro
close

there isn't a video lesson for this song

chords

Nite Expo

	  		INTRO 

G|---------------------------------------------------------------| 
D|---------------------------------------------------------------| 
A|5-5-5-5-5-5-5-5-5-5-5-5-5-5-5-5-5-5-5-5-5-5-5-5-5-5-5-5-5-5-5-5| x2 
E|---------------------------------------------------------------| 

G|------------------------------| 0:12 
D|----------------5-5-5-5-3-3-3~| 
A|5-5-5-5-3-3-3-3---------------| x4 
E|------------------------------| 

G|---------------------------------------------------------------| 
D|---------------------------------------------------------------| 
A|5-5-5-5-5-5-5-5-5-5-5-5-5-5-5-5-5-5-5-5-5-5-5-5-5-5-5-5-5-5-5-5| x2 
E|---------------------------------------------------------------| 

G|------------------------------| 0:38 
D|----------------5-5-5-5-3-3-3~| 
A|5-5-5-5-3-3-3-3---------------| x4 
E|------------------------------|  

VERSES start here 

G|---------------------------------------------------------------| 0:51 
D|---------------------------------------------------------------| 
A|5-5-5-5-5-5-8~-5-5-5-5-5-5-8~-5-5-8~-5-5-8~-5-5-5-5-5-5-8~-----| x2 
E|---------------------------------------------------------------| ROCK RIFF 

G|----------10----| 
D|--/12~------12--| 1:03 
A|5------5~-------| x 8 
E|----------------| SLIDE RIFF 

G|-------------------------------| 1:28 
D|5-5-5-5-5-5-/9\-3-3-3-3-3-3-3~-| 
A|-------------------------------| 
E|-------------------------------| BRIDGE 

G|----------10----| 
D|--/12~------12--| 1:03 
A|5------5~-------| x 8 
E|----------------| SLIDE RIFF x8 


G|-------------------------------| 1:28 
D|5-5-5-5-5-5-/9\-3-3-3-3-3-3-3~-| 
A|-------------------------------| 
E|-------------------------------| BRIDGE 

G|---------------------------------------------------------------| 0:51 
D|---------------------------------------------------------------| 
A|5-5-5-5-5-5-8~-5-5-5-5-5-5-8~-5-5-8~-5-5-8~-5-5-5-5-5-5-8~-----| x2 
E|---------------------------------------------------------------|ROCK RIFF x2 

G|----------10----| 
D|--/12~------12--| 1:03 
A|5------5~-------| x 8 
E|----------------| SLIDE RIFF x8 


G|-------------------------------| 1:28 
D|5-5-5-5-5-5-/9\-3-3-3-3-3-3-3~-| 
A|-------------------------------| 
E|-------------------------------| BRIDGE 

G|---------------------------------------------------------------| 0:51 
D|---------------------------------------------------------------| 
A|5-5-5-5-5-5-8~-5-5-5-5-5-5-8~-5-5-8~-5-5-8~-5-5-5-5-5-5-8~-----| x2 
E|---------------------------------------------------------------|ROCK RIFF x2 


| /  slide up 
| \  slide down 
| ~  slightly longer note 
		  

See also:

bass Red Hot Chili Peppers - America Ghost Dance bass Good Charlotte - Footlose bass Red Hot Chili Peppers - Scar Tissue bass Red Hot Chili Peppers - Otherside bass Red Hot Chili Peppers - By the way bass Good Charlotte - Hold On (ver. 2)
e-chords

Other versions:

bass Thee Oh Sees - Nite Expo
auto scroll beats size up size down change color hide chords drawings
tab show chords e-chords YouTube Clip e-chords hide all tabs e-chords go to top tab

share