The Zombies

A Love That Never Was

The Zombies

bass

by  ANDRSOUZA

save to print version add songbook text version e-mail correct tuner
chordsukulelecavacokeyboardtabbassdrumsharmonicaflute Guitar Pro
close

there isn't a video lesson for this song

chords

A Love That Never Was

	  		

G|----------------------------------------------------------------| 
D|7-----------7---7---------------7-----------7---7---------------| 
A|------------------------4---/-------------------------------7---| 
E|----------------------------------------------------------------| 

G|----------------------------------------------------------------| 
D|7-----------7-------------------7-----------7-------------------| 
A|------------------------4---/---------------------------7-\-5---| 
E|----------------------------------------------------------------| 

0:08 

G|----------------------------------------------------------------| 
D|--------------------------------4-------------------------------| 
A|----------------7-----------7-------------------4---4-----------| 
E|5-----------5-----------------------------------------------7---| 

G|----------------------------------------------------------------| 
D|--------------------------------4-------------------------------| 
A|----------------7-----------7---------------4---4---4-------4---| 
E|5-----------5---------------------------------------------------| 

G|----------------------------------------------------------------| 
D|------------4---7-------4---------------------------------------| 
A|6---------------------------6-/-7---7---7---7---7---7---7---7---| 
E|----------------------------------------------------------------| 

G|----------------------------------------------------------------| 
D|7-----------7-------------------7-----------7---------------5---| 
A|------------------------4---/---------------------------7-------| 
E|----------------------------------------------------------------| 

0:23 

G|----------------------------------------------------------------| 
D|7-----------7-------------------4-----------------------4-/-6---| 
A|----------------7-----------7---------------4---4---4-----------| 
E|----------------------------------------------------------------| 

G|----------------------------------------------------------------| 
D|7-----------7-------------------4-------------------------------| 
A|----------------7-----------7-------------------4---------------| 
E|----------------------------------------------------------------| 

G|----------------------------------------------------------------| 
D|------------4---7-------4---------------------------------------| 
A|6---------------------------6-/-7---7---7---7---7---7---7---7---| 
E|----------------------------------------------------------------| 

G|----------------------------------------------------------------| 
D|7-----------7---7-----------5---7-------------------------------| 
A|------------------------7---------------7-------4-----------4---| 
E|--------------------------------------------------------5-------| 

0:37 

G|----------------------------------------------------------------| 
D|--------7-------4-------7---4-----------7-----------------------| 
A|5-------------------------------5---------------8-------7---4---| 
E|----------------------------------------------------------------| 

G|--------------------------------| 
D|----------------------------7---| 
A|--------4-------5-------7-------| 
E|5-------------------------------| 

G|----------------------------------------7-------10------7-------| 
D|9-------9---------------7-------9-----/---------------------9---| 
A|----------------9---9-------9-----------------------------------| 
E|----------------------------------------------------------------| 

G|--------9-----------9-------------------------------------------| 
D|7-----------------------9-\-7-----------7-------10------7-------| 
A|------------7-------------------7---------------------------9---| 
E|----------------------------------------------------------------| 

G|----------------------------------------------------------------| 
D|----------------------------------------------------------------| 
A|7---7---7---7---7---7---7---7---7---7---7---7---7---7---7---7---| 
E|----------------------------------------------------------------| 

G|----------------------------------------------------------------| 
D|----------------------------------------------------------------| 
A|7---7---7---7---7---7---7---7---7---7---7---7---7---7---7-------| 
E|----------------------------------------------------------------| 

0:59 

G|----------------------------------------------------------------| 
D|--------------------------------4-------------------------------| 
A|----------------7-----------7-------------------4---4-----------| 
E|5-----------5-----------------------------------------------7-\-| 

G|----------------------------------------------------------------| 
D|--------------------------------4-------------------------------| 
A|----------------7-----------7-------------------4---4-------4-/-| 
E|5-----------5---------------------------------------------------| 

G|----------------------------------------------------------------| 
D|------------4---7-------4---------------------------------------| 
A|6---------------------------6---7---7---7---7---7---7---7-------| 
E|----------------------------------------------------------------| 

G|----------------------------------------------------------------| 
D|7-----------7-------------------7---------------7---------------| 
A|------------------------4---/---------------------------4---/---| 
E|----------------------------------------------------------------| 

1:15 

G|----------------------------------------------------------------| 
D|7-------------------------------4-----------------------4---6---| 
A|----------------7---7-------7---------------4---4---4-----------| 
E|----------------------------------------------------------------| 

G|----------------------------------------------------------------| 
D|7-------------------------------4-------------------------------| 
A|----------------7---7-------7-------------------4---4-------4---| 
E|----------------------------------------------------------------| 

G|----------------------------------------------------------------| 
D|------------4---7-------4---------------------------------------| 
A|6---------------------------6---7---7---7---7---7---7---7-------| 
E|----------------------------------------------------------------| 

G|----------------------------------------------------------------| 
D|------------------------7-------7-------------------------------| 
A|----------------------------7-----------7-------4-----------4---| 
E|5-----------5-------------------------------------------5-------| 

1:30 

G|----------------------------------------------------------------| 
D|--------7-------4-----------------------7-------4---------------| 
A|5-----------------------7-------5-----------------------7-------| 
E|----------------------------------------------------------------| 

G|--------------------------------| 
D|----------------------------7---| 
A|--------4-------5-------7-------| 
E|5-------------------------------| 

G|----------------------------------------7-------10--7-----------| 
D|9-------9---------------7-------9-----/-----------------9---6---| 
A|----------------9---9-------9-----------------------------------| 
E|----------------------------------------------------------------| 

G|--------9-----------9---------------------------7---------------| 
D|7-----------------------9---8---7-------10----------10--7-------| 
A|------------7-----------------------------------------------9---| 
E|----------------------------------------------------------------| 

G|----------------------------------------------------------------| 
D|----------------------------------------------------------------| 
A|7---7---7---7---7---7---7---7---7---7---7---7---7---7---7---7---| 
E|----------------------------------------------------------------| 

G|----------------------------------------------------------------| 
D|----------------------------------------------------------------| 
A|7---7---7---7---7---7---7---7---7---7---7---7---7---7---7-------| 
E|----------------------------------------------------------------| 

1:50 

G|--------------------------------------------6-------------------| 
D|--------------------------------4-------------------------------| 
A|----------------7-----------7-------------------4---4-----------| 
E|5-----------5---------------------------------------------------| 

G|----------------------------------------------------------------| 
D|--------------------------------4-----------------------4-------| 
A|----------------7-----------7---------------4---4---4-------4-/-| 
E|5-----------5---------------------------------------------------| 

G|----------------------------------------------------------------| 
D|------------4---7-------4---------------------------------------| 
A|6---------------------------6---7---7---7---7---7---7---7-------| 
E|----------------------------------------------------------------| 

2:02 Until fadeout. 

G|----------------------------------------------------------------| 
D|7-----------7-------------------7-----------7-----------7-------| 
A|------------------------4---/-------------------------------7---| 
E|----------------------------------------------------------------| 
		  

See also:

bass Led Zeppelin - The Ocean bass Led Zeppelin - Ramble On bass Pink Floyd - Astronomy Domine bass Led Zeppelin - Hots On For Nowhere bass Led Zeppelin - Baby Im Gonna Leave You bass Led Zeppelin - Babe Im Gonna Leave You (ver. 2)
e-chords

Other versions:

bass The Zombies - A Love That Never Was
auto scroll beats size up size down change color hide chords drawings
tab show chords e-chords YouTube Clip e-chords hide all tabs e-chords go to top tab

share