The Wrens

Learned In Space

The Wrens

bass

by  JESSGOMES

save to print version add songbook text version e-mail correct tuner
chordsukulelecavacokeyboardtabbassdrumsharmonicaflute Guitar Pro
close

there isn't a video lesson for this song

chords

Learned In Space

	  		
verse 1 

G|-------------------------------------------------------------------| 
D|-------------------------------------------------------------------| 
A|--0-0-0-0-0-0-0-0-----------------0-0-0-0-0-0-0-0------------------| 
E|------------------1-1-1-1-1-1-1-1-----------------1-1-1-1-1-1-1-1--| 

Pre-Chorus 1 

G|-------------------------------------------------------------------| 
D|--0-0-0-0-------------------------0-0-0-0--------------------------| 
A|----------3-3-3-3-------------------------3-3-3-3------------------| 
E|------------------1-1-1-1-1-1-1-1-----------------1-1-1-1-1-1-1-1--| 

verse 2 

G|-------------------------------------------------------------------| 
D|-------------------------------------------------------------------| 
A|--0-0-0-0-0-0-0-0-----------------0-0-0-0-0-0-0-0------------------|x2 
E|------------------1-1-1-1-1-1-1-1-----------------1-1-1-1-1-1-1-1--| 

Pre-Chorus 2 

G|-------------------------------------------------------------------| 
D|--0-0-0-0-------------------------0-0-0-0--------------------------| 
A|----------3-3-3-3-------------------------3-3-3-3------------------| 
E|------------------1-1-1-1-1-1-1-1-----------------1-1-1-1-1-1-1-1--| 

Chorus 1 

G|-------------------------------------------------------------------| 
D|------0-0-2-2-3-3-----------------0-0-2-2-3-3-5-5-------------0-0--| 
A|--1-1-----------------0-0-2-2-3//-----------------0-0-2-2-3-3------| 
E|------------------1-1----------------------------------------------| 

G|----------------------------------------------------------------------------------| 
D|------0-0-2-2-3-3-----------------------------------------------------------------| 
A|--1-1-----------------0-0-2-2-3//-0-0-/12-12-12-12-12-12-12-12-12-12-12-12-12-12--| 
E|------------------1-1-------------------------------------------------------------| 

verse 3 

G|-------------------------------------------------------------------| 
D|-------------------------------------------------------------------| 
A|--0-0-0-0-0-0-0-0-----------------0-0-0-0-0-0-0-0------------------|x3 
E|------------------1-1-1-1-1-1-1-1-----------------1-1-1-1-1-1-1-1--| 

Pre-Chorus 3  

G|-------------------------------------------------------------------| 
D|--0-0-0-0-------------------------0-0-0-0--------------------------| 
A|----------3-3-3-3-------------------------3-3-3-3------------------| 
E|------------------1-1-1-1-1-1-1-1-----------------1-1-1-1-1-1-1-1--| 

Chorus 2 

G|-------------------------------------------------------------------| 
D|------0-0-2-2-3-3-----------------0-0-2-2-3-3-5-5-------------0-0--| 
A|--1-1-----------------0-0-2-2-3//-----------------0-0-2-2-3-3------| 
E|------------------1-1----------------------------------------------| 

G|---------------------------------------------------------/15b-15b-15b-15b-14b-14b-14b-14b--| 
D|------0-0-2-2-3-3--------------------------------------------------------------------------| 
A|--1-1-----------------0-0-2-2-3//-0-0-/12-12-12-12-12-12-----------------------------------| 
E|------------------1-1----------------------------------------------------------------------| 

Bridge 

G|-------------------------------------------------------------------| 
D|-------------------------------------------------------------------| 
A|--0-0-----0-0---------------------0-0-----0-0----------------------|x2 
E|------------------1-1-----1-1---------------------1-1-----1-1------| 

Chorus 3 

G|-------------------------------------------------------------------| 
D|------0-0-2-2-3-3-----------------0-0-2-2-3-3-5-5-------------0-0--| 
A|--1-1-----------------0-0-2-2-3//-----------------0-0-2-2-3-3------| 
E|------------------1-1----------------------------------------------|-----------------------| 
 |                                                                                           |x2 
G|---------------------------------------------------------/15b-15b-15b-15b-14b-14b-14b-14b--| 
D|------0-0-2-2-3-3--------------------------------------------------------------------------| 
A|--1-1-----------------0-0-2-2-3//-0-0-/12-12-12-12-12-12-----------------------------------| 
E|------------------1-1----------------------------------------------------------------------| 

Coda 

G|-------------------------------------------------------------------| 
D|-------------------------------------------------------------------| 
A|--0-0-0-0-0-0-0-0-----------------0-0-0-0-0-0-0-0------------------| 
E|------------------1-1-1-1-1-1-1-1-----------------1-1-1-1-1-1-1-1--| 

G|-------------------------------------------------------------------| 
D|-------------------------------------------------------------------| 
A|--0-0-0-0-0-0-0-0-----------------0-0-0-0-0-0-0-0------------------| 
E|------------------1-1-1-1-1-1-1-1-----------------1-1~-------------| 


************************************ 

| /   Slide up  
| \   Slide down 
| ~   Sustain  
| b   Bend  

************************************ 
		  

See also:

bass Deep Purple - Smoke On The Waterr bass Deep Purple - Knocking At Your Back Door bass Deep Purple - Space Truckin' bass Deep Purple - Burn Ver.(2) bass Deep Purple - Black Night bass Deep Purple - Ted The Mechanic
e-chords

Other versions:

bass The Wrens - Learned In Space
auto scroll beats size up size down change color hide chords drawings
tab show chords e-chords YouTube Clip e-chords hide all tabs e-chords go to top tab

share