The Waterboys

Glastonbury Song

The Waterboys

bass

by  ABELAMIN

save to print version add songbook text version e-mail correct tuner
chordsukulelecavacokeyboardtabbassdrumsharmonicaflute Guitar Pro
close

there isn't a video lesson for this song

chords

Glastonbury Song

	  		
The Waterboys – Glastonbury Song 

Intro 1 
G|----------------|--------|----------------|--------|–---------------|| 
D|----------------|--------|----------------|--------|----------------|| 
A|--------0-----0-|--------|--------0-----0-|--------|--------0-----0-|| 
E|2-----2---------|4---0-4-|2-----2---------|4---0-4-|2-----2---------|| 

Intro 2 
G|----------------|----------------|----------------|----------------|| 
D|----------------|----------------|----------------|----------------|| 
A|2-----2---------|5-----5-4---0-4-|2-----2---------|5-----5-4---0---|| 
E|--------3-----3-|----------------|--------3-----3-|----------------|| 

verse 1 
G|----------------|----------------|----------------|----------------| 
D|----------------|----------------|----------------|----------------| 
A|4-----4-0-------|2-----2-2-------|4-----4-0-------|2-----2-2-----2-| 
E|--------------2-|----------------|--------------2-|------------4---| 

G|----------------|----------------|----------------|----------------|| 
D|----------------|----------------|----------------|----------------|| 
A|4-----4-0-------|2-----2-2-----2-|4-----4-0-----0-|----------------|| 
E|--------------2-|------------4---|----------------|4-----4-2---2-0-|| 

Chorus 
G|----------------|--------|----------------|--------|----------------|| 
D|----------------|--------|----------------|--------|----------------|| 
A|--------0-0-0-0-|--------|--------0-0-0-0-|--------|--------0-0-0-0-|| 
E|2-2-2-2---------|4-4-0-4-|2-2-2-2---------|4-4-0-4-|2-2-2-2---------|| 

verse 2 
G|----------------|----------------|----------------|----------------| 
D|----------------|----------------|----------------|------------6---| 
A|4-----4-0-------|2-----2-2-------|4-----4-0-------|2-----2-2-------|  
E|--------------2-|--------------4-|--------------2-|----------------|  

G|----------------|----------------|----------------|----------------|| 
D|----------------|----------------|----------------|----------------|| 
A|4-----4-0-------|2-----2-2-----2-|4-----4-----0-2-|----------------|| 
E|--------------2-|------------4---|--------2-4-----|4-----4-2---2-0-|| 

Chorus 
G|----------------|--------|----------------|--------|----------------|| 
D|----------------|--------|----------------|--------|----------------|| 
A|--------0-0-0-0-|--------|--------0-0-0-0-|--------|--------0-0-0-0-|| 
E|2-2-2-2---------|4-4-0-4-|2-2-2-2---------|4-4-0-4-|2-2-2-2---------|| 

verse 3 
G|----------------|----------------|----------------|----------------| 
D|----------------|----------------|----------------|----------------| 
A|4-----4-0-------|2-----2-2-------|4-----4-0-------|2-----2-2-------| 
E|--------------2-|--------------4-|--------------2-|------------2-4-| 

G|----------------|----------------|----------------|----------------|| 
D|----------------|----------------|----------------|----------------|| 
A|4-----4-0-------|2-----2-2-------|4-----4-----0-2-|----------------|| 
E|--------------2-|--------------4-|--------2-4-----|4-----4-2---2-0-|| 

Chorus 
G|----------------|--------|----------------|--------| 
D|----------------|--------|----------------|--------| 
A|--------0-0-0-0-|--------|--------0-0-0-0-|--------| 
E|2-2-2-2---------|4-4-0-4-|2-2-2-2---------|4-4-0-4-| 

G|----------------|--------|----------------|| 
D|----------------|--------|----------------|| 
A|--------0-0-0-0-|--------|--------0-0-0-0-|| 
E|2-2-2-2---------|4-4-0-4-|2-2-2-2---------|| 

Interlude 
G|----------------|----------------|----------------|----------------|| 
D|----------------|----------------|----------------|----------------|| 
A|2-----2---------|5-----5-4---0-4-|2-----2---------|5-----5-4---0---|| 
E|--------3-----3-|----------------|--------3-----3-|----------------|| 

Coda (a capella) 
G|----------------|----------------|----------------|----------------| 
D|----------------|----------------|----------------|----------------| 
A|----------------|----------------|----------------|----------------| 
E|----------------|----------------|----------------|----------------| 

G|----------------|----------------|----------------|----------------|| 
D|----------------|----------------|----------------|----------------|| 
A|----------------|--------------2-|4-----4-0-----0-|2---2-2-2-2-2-2-|| 
E|----------------|-------------4--|----------------|----------------|| 

G|----------------|----------------|| 
D|----------------|----------------|| 10x (guitar solo from #4) 
A|4-4-4-4-0-0-0-0-|2-2-2-2-2-2-2-2-||     (fade from #9) 
E|----------------|----------------||     (optional variations) 
		  

See also:

bass Courtney Love - Mono bass Collective Soul - Shine (ver. 2) bass Backstreet Boys - Everybody bass Beyoncé - Deja Vu bass My Chemical Romance - Im not okay(Promise) bass Christina Aguilera - Pero me acuerdo de ti
e-chords

Other versions:

bass The Waterboys - Glastonbury Song
auto scroll beats size up size down change color hide chords drawings
tab show chords e-chords YouTube Clip e-chords hide all tabs e-chords go to top tab

share