The Wallflowers

Laughing Out Loud

The Wallflowers

bass

by  EDSOOLIVEIRA

save to print version add songbook text version e-mail correct tuner
chordsukulelecavacokeyboardtabbassdrumsharmonicaflute Guitar Pro
close

there isn't a video lesson for this song

chords

Laughing Out Loud

	  		
Intro                                                 Main Riff 
         e e e q q e e e e e q   e e e q q e q q  2x     q   q   q   e q  3x 
G|---||----------7-6-----------|---------7-7/9----||-||----------7-x------||-----| 
D|---||*-----7-------9-7-6-7-9-|-----7---------7-*||-||*-------------7-7-*||-----| 
A|---||*-7-9---9---------------|-7-9---9---------*||-||*-7-x-9-x---------*||-----| 
E|---||------------------------|------------------||-||-------------------||-----| 

     q   q q e q q   e e e q q e e e e e q   e e e q q e q q 
G|---------7-7/9---|---------7-6-----------|---------7-7/9---|-------------------| 
D|---------------7-|-----7-------9-7-6---9-|-----7---------7-|-------------------| 
A|---7-x-9---------|-7-9---9-----------7---|-7-9---9---------|-------------------| 
E|-----------------|-----------------------|-----------------|-------------------| 

Bridge 
     e q   s e q   s e q   s e e e e e e e e q        q   q   q   e q  3x 
G|---------------------------------------------||-||----------7-x------||--------| 
D|-------------------5-5-x-5-7-7-7-7-7-7-7-7-7-||-||*-------------7-7-*||--------| 
A|---7-7-x-7-9-9-x-9---------------------------||-||*-7-x-9-x---------*||--------| 
E|---------------------------------------------||-||-------------------||--------| 

     q   q q e q q   e q   s e q   s e q   s e e e e e e e e q 
G|---------7-7/9---|-------------------------------------------||----------------| 
D|---------------7-|-----------------5-5-x-5-7-7-7-7-7-7-7-7-7-||----------------| 
A|---7-x-9---------|-7-7-x-7-9-9-x-9---------------------------||----------------| 
E|-----------------|-------------------------------------------||----------------| 

Chorus 
     q   q   q     e e q e e e e e e e e e e e e e e e e q    q   q   q 
G|---------------|-----9-----8-8-8-8-8-8-8-8-7-7-7-7-------||-------------|------| 
D|-------7-x-----|-7-9---9-7-------------------------9-7---||-----7-x-----|------| 
A|---7-x-----9-x-|---------------------------------------9-||-7-x-----9-x-|------| 
E|---------------|-----------------------------------------||-------------|------| 

     e e q e e e e e e e e e e e e e q   h    e e e q q e e e e e q 
G|-------9-----8-8-8-8-8-8-8-8-------------||---------7-6-----------|------------| 
D|---7-9---9-7-----------------------7-x-7-||-----7-------9-7-6-7-9-|------------| 
A|-----------------------------5-5-5-------||-7-9---9---------------|------------| 
E|-----------------------------------------||-----------------------|------------| 

Main Riff 
     e e e q q e q q       q   q   q   e q  3x q   q q e q q 
G|-----------7-7/9---|-||----------7-x------||-------7-7/9---|-------------------| 
D|-------7---------7-|-||*-------------7-7-*||-------------7-|-------------------| 
A|---7-9---9---------|-||*-7-x-9-x---------*||-7-x-9---------|-------------------| 
E|-------------------|-||-------------------||---------------|-------------------| 

     e e e q q e e e e e q   e e e q q e q q 
G|-----------7-6-----------|---------7-7/9---|-----------------------------------| 
D|-------7-------9-7-6-7-9-|-----7---------7-|-----------------------------------| 
A|---7-9---9---------------|-7-9---9---------|-----------------------------------| 
E|-------------------------|-----------------|-----------------------------------| 

Bridge                                         Chorus 
     e q   s e q   s e q   s e e e e e e e e q    q   q   q 
G|---------------------------------------------||-------------|------------------| 
D|-------------------5-5-x-5-7-7-7-7-7-7-7-7-7-||-----7-x-----|------------------| 
A|---7-7-x-7-9-9-x-9---------------------------||-7-x-----9-x-|------------------| 
E|---------------------------------------------||-------------|------------------| 

     e e q e e e e e e e e e e e e e e e e q    q   q   q 
G|-------9-----8-8-8-8-8-8-8-8-7-7-7-7-------||-------------|--------------------| 
D|---7-9---9-7-------------------------9-7---||-----7-x-----|--------------------| 
A|-----------------------------------------9-||-7-x-----9-x-|--------------------| 
E|-------------------------------------------||-------------|--------------------| 

     e e q e e e e e e e e e e e q q   h 
G|-------9-----8-8-8-8-8-8-8-8-----------||--------------------------------------| 
D|---7-9---9-7---------------------7-x-7-||--------------------------------------| 
A|-----------------------------5-5-------||--------------------------------------| 
E|---------------------------------------||--------------------------------------| 

         eoeoe e e e e e e e e e e e e e e e e e e e e e e e e e e e e e  4x 
G|---||-------------------------------------------------------------------||-----| 
D|---||*-----------------7-7-7-7-7-7-7-7---------------------------------*||-----| 
A|---||*-9-9-9-9-9-9-9-9-----------------7-7-7-7-7-7-7-7-5-5-5-5-5-5-5-5-*||-----| 
E|---||-------------------------------------------------------------------||-----| 

Chorus 
         q   q   q     e e q e e e e e e e e e e e e e e e e q 
G|---||--------------|-----9-----8-8-8-8-8-8-8-8-7-7-7-7-------||----------------| 
D|---||*-----7-x-----|-7-9---9-7-------------------------9-7---||----------------| 
A|---||*-7-x-----9-x-|---------------------------------------9-||----------------| 
E|---||--------------|-----------------------------------------||----------------| 

                                                             Outro 
     q   q   q     e e q e e e e e e e e e e e e e q   h  2x q   q   w 
G|---------------|-----9-----8-8-8-8-8-8-8-8--------------||-----------||--------| 
D|-------7-x-----|-7-9---9-7-----------------------7-x-7-*||-----7-x---||--------| 
A|---7-x-----9-x-|---------------------------5-5-5-------*||-9-x-----9-||--------| 
E|---------------|----------------------------------------||-----------||--------| 



************************************ 

| x  Dead note 
| /  Slide up 
| *  Natural harmonic 
| s  Slap 

************************************ 
		  

See also:

bass Audioslave - I Am the Highway bass Red Hot Chili Peppers - Road Trippin' (versao 2) bass Red Hot Chili Peppers - Parallel Universe bass Ben Harper - Walk Away bass Red Hot Chili Peppers - Under the Bridge (ver. 2) bass Red Hot Chili Peppers - Brandy (You're a Fine Girl)
e-chords

Other versions:

bass The Wallflowers - Laughing Out Loud
auto scroll beats size up size down change color hide chords drawings
tab show chords e-chords YouTube Clip e-chords hide all tabs e-chords go to top tab

share