The Trammps

home > The Trammps

Disco Inferno Bass Tab

The Trammps

Difficulty: BeginnerBeginner

by Acelot

tuner correct add songbook print version text version save to e-mail
chordsukulelecavacokeyboardtabbassdrumsharmonicsflute Guitar Pro
chords

Disco Inferno

(Leroy/ Green/ Ron Kersey)

	  Intro:  

G|-7-7--5-5--3-3-------------------------|  
D|----------------5-5--2-2---------------|  
A|--------------------------5-5--3-3-3-2-|  
E|---------------------------------------|  

Verse:  

G|------------------------------------------------------2------|  
D|-----4---0-2-------4---0-0-2-----4---0-2----------6----------|  
A|-2-2---2-----0-2-2---2-------2-2---2-----0-2-2------0---1-2--|  
E|------------------------------------------------4------------|  

Chorus:  

G|----------------------------------------------------|  
D|-2-2-1----------------------------------------------|  
A|--------4-4-2-------------2-2-------------------2-4-|  
E|--------------5-5-4-2-4-5-----0-2-4-5-4-2-4-5-------|  

G|----------------------------------------------------|  
D|-2-2-1----------------------------------------------|  
A|--------4-4-2--------------2-2-2-2-2-2-2-2-2--------|  
E|--------------5-5-4-2-4-5---------------------5-4---|  

verse 2:  

G|-------------------------------------------------------|  
D|-----4---0-2-------4---1-2-1-2-2-1---------------------|  
A|-2-2---2-----0-2-2---2-------------4-4-2-------------2-|  
E|-----------------------------------------5-5-4-2-4-5---|  

Bridge:  

G|---------------------------------------------4-4-4----------|  
D|---------------------------------------------------6-6--4-4-|  
A|-0-0--2-4-2-0--0--2-4-0--2--2-2--4-6-4-2-2------------------|  
E|------------------------------------------------------------|  

G|-------------------------------------------------------------------|  
D|-------------------------------4-4--------------4-4----------------|  
A|-0--2--4-2-0-0--0-2--4-0-1--2------7-7-5-X-5-4------7---5-x-5-4--2-|  
E|-------------------------------------------------------------------|  

	  

there isn't a video lesson for this song

request
Search
auto scroll beats size up size down change color hide chords drawings
tab show chords e-chords YouTube Clip e-chords hide all tabs e-chords go to top tab