The Tokens

home > The Tokens

The Purpose Of A Circus Bass Tab

The Tokens

Difficulty: nolevelnolevel

by aleffederico

tuner correct add songbook print version text version save to e-mail
chordsukulelecavacokeyboardtabbassdrumsharmonicsflute Guitar Pro
chords

The Purpose Of A Circus

  		
0:10 

G|----------------------------------------------------------------| 
D|2---2-------2-------------------2---2-------2---------------2---| 
A|----------------2---2-------2-------------------2-------2-------| 
E|----------------------------------------------------------------| 

G|------------------------------------------------| 
D|4-------4-------4-------4-------2---1-----------| 
A|----------------------------------------4---2---| 
E|------------------------------------------------| 

G|----------------------------------------------------------------| 
D|--------------------------------------------------------4-------| 
A|----------------------------------------------------------------| 
E|----------------------------------------------------------------| 

0:23 

G|----------------------------------------------------------------| 
D|------------------------4---------------------------------------| 
A|2-------------------------------2---------------------------2---| 
E|----------------------------------------------------------------| 

G|----------------------------------------------------------------| 
D|----2-------2-------------------2---2-------2---------------2---| 
A|----------------2---2-------2-------------------2-------2-------| 
E|----------------------------------------------------------------| 

G|------------------------------------------------| 
D|4-------4-------4-------4-------2---1-----------| 
A|----------------------------------------4---2---| 
E|------------------------------------------------| 

G|----------------------------------------------------------------| 
D|----------------------------------------------------------------| 
A|--------2-------2-------2-----------4---4---4---4---4---4---4---| 
E|----------------------------------------------------------------| 

G|----------------------------------------------------------------| 
D|4---------------------------------------------------------------| 
A|----------------------------------------------------------------| 
E|----------------------------------------------------------------| 

G|------------------------------------------------| 
D|------------------------------------------------| 
A|----------------------------------------4-------| 
E|------------------------------------------------| 

0:47 

G|----------------------------------------------------------------| 
D|4---------------------------------------1---3---4---------------| 
A|------------------------1-------2---4---------------------------| 
E|----------------2---4-------------------------------------------| 

G|--------------------------------------------------------------------------------| 
D|----------------4-------------------------------4---4---4---4---4---4---4---4---| 
A|4-------------------------------------------------------------------------------| 
E|--------------------------------------------------------------------------------| 

0:57 

G|----------------------------------------------------------------| 
D|------------------------4---------------------------------------| 
A|2-------------------------------2-----------------------2-------| 
E|----------------------------------------------------------------| 

G|----------------------------------------------------------------| 
D|4-----------------------4-------------------------------4-------| 
A|--------------------------------2-------------------------------| 
E|----------------------------------------------------------------| 

G|----------------------------------------------------------------| 
D|------------------------4---------------------------------------| 
A|2-------------------------------2-----------------------2-------| 
E|----------------------------------------------------------------| 

G|----------------------------------------------------------------| 
D|4-----------------------4---------------------------------------| x2 
A|--------------------------------2-----------------------2-------| 
E|----------------------------------------------------------------| 

G|------------------------------------| 
D|4-----------------------4-----------| 
A|--------------------------------2---| 
E|------------------------------------| 



1:32 

G|----------------------------------------------------------------| 
D|2---2-------2-------------------2---2-------2---------------2---| 
A|----------------2---2-------2-------------------2-------2-------| 
E|----------------------------------------------------------------| 

G|----------------------------------------------------------------| 
D|4-------------------------------2---1-----------------------2---| 
A|----------------------------------------4---2-----------2-------| 
E|----------------------------------------------------------------| 

G|------------------------------------------------| 
D|4-------------------------------2---1-----------| 
A|----------------------------------------4---2---| 
E|------------------------------------------------| 

G|----------------------------------------------------------------| 
D|----------------------------------------------------------------| 
A|--------2-------2-------2-----------4---4---4---4---4---4---4---| 
E|----------------------------------------------------------------| 

G|----------------------------------------------------------------| 
D|4---------------------------------------------------------------| 
A|----------------------------------------------------------------| 
E|----------------------------------------------------------------| 

G|------------------------------------------------| 
D|------------------------------------------------| 
A|----------------------------------------4-------| 
E|------------------------------------------------| 

1:57 Until fadeout. 

G|----------------------------------------------------------------| 
D|4---------------------------------------1---3---4---------------| 
A|------------------------1-------2---4---------------------------| 
E|----------------2---4-------------------------------------------| 

G|-------------------------------------------------| 
D|----------------4--------------------------------| 
A|4----------------------------------------4-------| 
E|-------------------------------------------------| 
	  

Search Paypal
auto scroll beats size up size down change color hide chords drawings
tab show chords e-chords YouTube Clip e-chords hide all tabs e-chords go to top tab