The Strypes

home > The Strypes

Mystery Man Bass Tab

The Strypes

Difficulty: nolevelnolevel

by abelamin

tuner correct add songbook print version text version save to e-mail
chordsukulelecavacokeyboardtabbassdrumsharmonicsflute Guitar Pro
chords

Mystery Man

  		
Intro: 

G|------------------|    |----------| 
D|--------3---3-5---| x4 |----------| 
A|----3-5---5-------|    |--3-4-5---| 
E|3-----------------|    |3---------| 

First phrase: 


G|------------------------------------------------------------------------| 
D|--------3---3-5-----------3---3-5-----------3---3-5---------------------| 
A|----3-5---5-----------3-5---5-----------3-5---5-------------------------| 
E|3-----------------3-----------------3--------------3-3-3-3-5-5-5-5------| 

G|------------------------------------------------------------------------| 
D|--------8--8-10-----------8--8-10-----------3---3-5-----------3---3-5---| 
A|----8-10-10-----------8-10-10-----------3-5---5-----------3-5---5-------| 
E|8-----------------8-----------------3-----------------3-----------------| 

G|------------------------------------------------------------------------| 
D|--------10-10-12----------8--8-10------------10-10-12---------8--8-10---| 
A|---10-12-12-----------8-10-10-----------10-12-12----------8-10-10-------| 
E|10----------------8-----------------10----------------8-----------------| 

G|------------------------------------------------------------------------| 
D|--------10-10-12----------8--8-10------------------------3---3-5--------| 
A|---10-12-12-----------8-10-10----------6-8---4-6-----3-5---5------3-4-5-| 
E|10----------------8-----------------6------4-----3--------------3-------| 


Second phrase: 


G|------------------------------------------------------------------------| 
D|--------3---3-5-----------3---3-5-----------3---3-5--5-5-6-6-7-7-8-8----| 
A|----3-5---5-----------3-5---5-----------3-5---5-------------------------| 
E|3-----------------3-----------------3-----------------------------------| 

G|------------------------------------------------------------------------| 
D|--------8--8-10-----------8--8-10-----------3---3-5-----------3---3-5---| 
A|----8-10-10-----------8-10-10-----------3-5---5-----------3-5---5-------| 
E|8-----------------8-----------------3-----------------3-----------------| 

G|------------------------------------------------------------------------| 
D|--------10-10-12----------8--8-10------------10-10-12---------8--8-10---| 
A|---10-12-12-----------8-10-10-----------10-12-12----------8-10-10-------| 
E|10----------------8-----------------10----------------8-----------------| 


G|------------------------------------------------------------------------| 
D|--------10-10-12----------8--8-10------------------------3---3-5--------| 
A|---10-12-12-----------8-10-10----------6-8---4-6-----3-5---5------3-4-5-| 
E|10----------------8-----------------6------4-----3--------------3-------| 


Third phrase / guitar Solo: 


G|------------------------------------------------------------------------| 
D|--------3---3-5-----------3---3-5-----------3---3-5---------------------| 
A|----3-5---5-----------3-5---5-----------3-5---5-------------------------| 
E|3-----------------3-----------------3---------------3-3-3-3-5-5-5-5-----| 

G|------------------------------------------------------------------------| 
D|--------8--8-10-----------8-----------------3---3-5--5-5-3-3------------| 
A|----8-10-10-----------8-10-10-8---------3-5---5--------------5-5-3------| 
E|8-----------------8------------10---3------------------------------5----| 

G|------------------------------------------------------------------------| 
D|--------10-10-12----------8--8-10------------10-10-12---------8--8-10---| 
A|---10-12-12-----------8-10-10-----------10-12-12----------8-10-10-------| 
E|10----------------8-----------------10----------------8-----------------| 


G|------------------------------------------------------------------------| 
D|--------10-10-12----------8--8-10------------------------3---3-5--------| 
A|---10-12-12-----------8-10-10----------6-8---4-6-----3-5---5------3-4-5-| 
E|10----------------8-----------------6------4-----3--------------3-------| 


 Fourth phrase: 
G|------------------------------------------------------------------------| 
D|--------3---3-5-----------3---3-5-----------3---3-5---------------------| 
A|----3-5---5-----------3-5---5-----------3-5---5-------------------------| 
E|3-----------------3-----------------3---------------3---4---5---6-------| 

G|------------------------------------------------------------------------| 
D|--------8--8-10-----------8--8-10-----------3---3-5-----------3---3-5---| 
A|----8-10-10-----------8-10-10-----------3-5---5-----------3-5---5-------| 
E|8-----------------8-----------------3-----------------3-----------------| 

G|------------------------------------------------------------------------| 
D|--------10-10-12----------8--8-10------------10-10-12---------8--8-10---| 
A|---10-12-12-----------8-10-10-----------10-12-12----------8-10-10-------| 
E|10----------------8-----------------10----------------8-----------------| 

G|------------------------------------------------------------------------| 
D|--------10-10-12----------8--8-10------------------------3---3-5--------| 
A|---10-12-12-----------8-10-10----------6-8---4-6-----3-5---5------3-4-5-| 
E|10----------------8-----------------6------4-----3--------------3-------| 

 Fifth phrase: 
G|------------------------------------------------------------------------| 
D|--------3---3-5-----------3---3-5-----------3---3-5---------------------| 
A|----3-5---5-----------3-5---5-----------3-5---5-------------------------| 
E|3-----------------3-----------------3---------------3-3-3-3-5-5-5-5-----| 

G|------------------------------------------------------------------------| 
D|--------8--8-10-----------8-----------------3---3-5--5-5-3-3------------| 
A|----8-10-10-----------8-10-10-8---------3-5---5--------------5-5-3------| 
E|8-----------------8------------10---3------------------------------5----| 

G|------------------------------------------------------------------------| 
D|--------10-10-12----------8--8-10------------10-10-12---------8--8-10---| 
A|---10-12-12-----------8-10-10-----------10-12-12----------8-10-10-------| 
E|10----------------8-----------------10----------------8-----------------| 


G|------------------------------------------------------------------------| 
D|--------10-10-12----------8--8-10------------------------3---3-5--------| 
A|---10-12-12-----------8-10-10----------6-8---4-6-----3-5---5------3-4-5-| 
E|10----------------8-----------------6------4-----3--------------3-------| 


 Sixth phrase / outro: 
G|------------------------------------------------------------------------| 
D|--5---5-5---5-5-5-5---5-5---5-5-5-5-5-5-7-7-7-8-8-8-8-9-9-9-9-----------| 
A|------------------------------------------------------------------------| 
E|------------------------------------------------------------------------| 

G|------------------------------------------------------------------------| 
D|------------------------------------------------------------------------| 
A|-5--5-5--5-5-5-5-5-7-7-8-8-10--10-10--10-10-10-10--10-10-10-10-10-10-10-| 
E|------------------------------------------------------------------------| 

G|------------------------------------------------------------------------| 
D|--------10-10-12----------8--8-10------------10-10-12---------8--8-10---| 
A|---10-12-12-----------8-10-10-----------10-12-12----------8-10-10-------| 
E|10----------------8-----------------10----------------8-----------------| 


G|------------------------------------------------------------------------| 
D|--------10-10-12----------8--8-10------------------------3---3-5--------| 
A|---10-12-12-----------8-10-10----------6-8---4-6-----3-5---5------------| 
E|10----------------8-----------------6------4-----3----------------------| 

G|--------------------------------------------------------| 
D|---------------------3---3-5---------------------3---3-5| 
A|---6-8---4-6-----3-5---5-------6-8---4-6-----3-5---5----| 
E|6------4-----3--------------6------4-----3--------------| 

G|--------------------------------------------------------| 
D|---------------------3---3-5--0h3---3--5----------------| 
A|---6-8---4-6-----3-5---5----------5---------------------| 
E|6------4-----3-----------------------------3------------| 



************************************ 

| h  Hammer-on 
  

************************************ 
	  

Search Paypal
auto scroll beats size up size down change color hide chords drawings
tab show chords e-chords YouTube Clip e-chords hide all tabs e-chords go to top tab