The Story So Far

Playing The Victim

The Story So Far

bass

by  AMAN_CLAUDINO

save to print version add songbook text version e-mail correct tuner
chordsukulelecavacokeyboardtabbassdrumsharmonicaflute Guitar Pro
close

there isn't a video lesson for this song

chords

Playing The Victim

	  		verse 1 

   +     +     +      +     +     +      +     +     +      +     +     + 
Gb|------------------|------------------|------------------|------------------| 
Db|------------------|------------------|------------------|------------------| 
Ab|------------------|------------------|------------------|------------3~----| 
Eb|1---1-1--1--1-----|1---1-1--1--1-----|1---1-1--1--1-----|1---1-1--1--------| 
                                                                                x2 
   +     +     +      +     +     +      +     +     +      +     +     + 
Gb|------------------|------------------|------------------|------------------| 
Db|------------------|------------------|------------------|------------------| 
Ab|------------------|------------------|------------------|------------------| 
Eb|3---3-3--3--3-----|3---3-3--3--3-----|3---3-3--3--3-----|3---3-3--3--5~----| 


Pre-Chorus 

   +   +   +    +   +   +    +   +   +    +   +   + 
Gb|------------|------------|------------|------------| 
Db|------------|------------|------------|------------| 
Ab|------------|------------|3-3-3-3-3-3-|5-5-5-5-5-5-| 
Eb|1-1-1-1-1-1-|5-5-5-5-5-5-|------------|------------| 

   +   +   +    +   +   +    +   +   +    +   +   + 
Gb|------------|------------|------------|------------| 
Db|------------|------------|------------|------------| 
Ab|------------|------------|3-3-3-3-3---|5-5-5-5-5---| 
Eb|1-1-1-1-1---|5-5-5-5-5---|*-*-*-*-*---|*-*-*-*-*---| 
   * * * * *    * * * * * 

   +   +   + 
Gb|------------| 
Db|------------| 
Ab|3-3-3-5-5-5-| 
Eb|------------| 


Chorus 

   +   +   +    +   +   +    +   +   +    +   +   + 
Gb|------------|------------|------------|------------| 
Db|------------|------------|------------|------------| 
Ab|------------|------------|------------|3-3-3-5-5-5-| x4 
Eb|1-1-1-1-1---|1-1-1-1-1---|1-1-1-1-1---|------------| 


verse 2 

   +   +   +    +   +   +    +   +   +    +   +   +    +   +   +    +   +   + 
Gb|------------|------------|------------|------------|------------|------------| 
Db|------------|------------|------------|------------|------------|------------| 
Ab|------------|------------|------------|------------|3~----------|------------| x2 
Eb|1~----------|------------|5~----------|------------|------------|3~----------| 

   +   +   +    +   +   +    +   +   +    +   +   +    +   +   +    +   +   + 
Gb|------------|------------|------------|------------|------------|------------| 
Db|------------|------------|------------|------------|------------|------------| 
Ab|------------|------------|------------|------------|3---3-3-3-3-|------------| x2 
Eb|1---1-1-1-1-|1---1-1-1-1-|5---5-5-5-5-|5---5-5-5-5-|------------|3---3-3-3-3-| 


Pre-Chorus 

   +   +   +    +   +   +    +   +   +    +   +   + 
Gb|------------|------------|------------|------------| 
Db|------------|------------|------------|------------| 
Ab|------------|------------|3~----------|5~----------| x2 
Eb|1~----------|5~----------|------------|------------| 

   +   +   + 
Gb|------------| 
Db|------------| 
Ab|3-3-3-5-5-5-| 
Eb|------------| 


Chorus 

   +   +   +    +   +   +    +   +   +    +   +   + 
Gb|------------|------------|------------|------------| 
Db|------------|------------|------------|------------| 
Ab|------------|------------|------------|3-3-3-5-5-5-| x4 
Eb|1-1-1-1-1---|1-1-1-1-1---|1-1-1-1-1---|------------| 


Bridge 

   +   +   +    +   +   +    +   +   +    +   +   +    +   +   +    +   +   + 
Gb|------------|------------|------------|------------|------------|------------| 
Db|------------|------------|------------|------------|------------|------------| 
Ab|------------|------------|------------|3--5h-3p-5h-|------------|------------| 
Eb|5~----------|------------|1~----------|------------|1~----------|3~----------| 

   +   +   +    +   +   +    +   +   +    +   +   +    +     +     +      +     +     + 
Gb|------------|------------|------------|------------|------------------|------------------| 
Db|------------|------------|------------|------------|------------------|------------------| 
Ab|------------|------------|------------|------------|3---3-3--3--3--3--|5---5-5--5--5--5--| x2 
Eb|5-5-5-5-5-5-|5-5-5-5-5-5-|1-1-1-1-1-1-|1-1-1-1-1-1-|------------------|------------------| 

   +   +   +    +   +   +    +   +   +    +   +   + 
Gb|------------|------------|------------|------------| 
Db|------------|------------|------------|------------| 
Ab|------------|------------|------------|------------| 
Eb|5-5-5-5-5-5-|5-5-5-5-5-5-|1-1-1-1-1-1-|1-1-1-1-1-1-| 


Pre-Chorus 

   +     +     +      +     +     + 
Gb|------------------|------------------| 
Db|------------------|------------------| 
Ab|3---3-3--3--3--3--|5---5-5--5--5--5--| x3 
Eb|------------------|------------------| 


Chorus 

   +   +   +    +   +   +    +   +   +    +   +   + 
Gb|------------|------------|------------|------------| 
Db|------------|------------|------------|------------| 
Ab|------------|------------|------------|3-3-3-5-5-5-| x4 
Eb|1-1-1-1-1---|1-1-1-1-1---|1-1-1-1-1---|------------| 

   +   +   + 
Gb|------------| 
Db|------------| 
Ab|------------| 
Eb|1~----------| 


************************************ 

| *   Staccato 
| h   Hammer-on 
| p   Pull-off 
| ~   Vibrato 

************************************ 
		  

See also:

bass Simon & Garfunkel - The sounds of silence bass Live - Dolphin“s Cry bass Guns N' Roses - Sweet Child O' Mine bass Guns N' Roses - Civil War bass 4 Non Blondes - What`s up (ver. 1) bass Guns N' Roses - Sweet Child O' Mine (ver. 3)
e-chords

Other versions:

bass The Story So Far - Playing The Victim
auto scroll beats size up size down change color hide chords drawings
tab show chords e-chords YouTube Clip e-chords hide all tabs e-chords go to top tab

share