The Rumjacks

Me Old Ball And Chain

The Rumjacks

bass

by  LINEKERS

save to print version add songbook text version e-mail correct tuner
chordsukulelecavacokeyboardtabbassdrumsharmonicaflute Guitar Pro
close

there isn't a video lesson for this song

chords

Me Old Ball And Chain

	  		
Intro 

G|--------|--------|     |--------|--------| 
D|--------|--------| x3  |--------|--------| 
A|5-------|--------|     |5-------|----5---| 
E|--------|5-------|     |--------|5-------| 

G|---------------|---------------|     |---------------|---------------| 
D|---------------|---------------| x3  |---------------|---------------| 
A|5-555-5-5-5-5-5|---------------|     |5-555-5-5-5-5-5|--------5~-----| 
E|---------------|5-555-5-5-5-5-5|     |---------------|5-555-5--------| 


Verse 

G|------------|------------|      |---------------|---------------| 
D|------------|------------| x3   |---------------|---------------| 
A|5--0--5--0--|------------|      |5-5-5-5-5-5-5-5|--------5-5-5-5| 
E|-----------7|5--0--5--0-7|      |---------------|5-5-5-7--------| 

G|------------|------------|      |---------------|---------------| 
D|------------|------------| x3   |---------------|---------------| 
A|5--0--5--0--|------------|      |5-5-5-5-5-5-5-5|--------5-5-5-5| 
E|-----------7|5--0--5--0-7|      |---------------|5-5-5-7--------| 


Chorus 

G|---------------|---------------|---------------|---------------|---------------| 
D|---------------|---------------|---------------|---------------|---------------| 
A|---------------|5-5-5-5-5-5-5-5|---------------|5-5-5-5-5-5-5-5|------5-5-5-5--| 
E|3-3-3-3-3-3-3-3|---------------|3-3-3-3-3-3-3-3|---------------|3--3-----------| 

G|---------------|---------------|---------------|-----------------| 
D|---------------|---------------|---------------|-----------------| 
A|---------------|3h5-5-5-5-5-5-5|3h5-5-5-5-5-5-5|--------5~-------| 
E|3-3-3-3-5-5-5-5|---------------|---------------|5-5-5-5----------| 


Verse 

G|------------|------------|      |---------------|---------------| 
D|------------|------------| x3   |---------------|---------------| 
A|5--0--5--0--|------------|      |5-5-5-5-5-5-5-5|--------5-5-5-5| 
E|-----------7|5--0--5--0-7|      |---------------|5-5-5-7--------| 


Chorus 

G|---------------|---------------|---------------|---------------|---------------| 
D|---------------|---------------|---------------|---------------|---------------| 
A|---------------|5-5-5-5-5-5-5-5|---------------|5-5-5-5-5-5-5-5|------5-5-5-5--| 
E|3-3-3-3-3-3-3-3|---------------|3-3-3-3-3-3-3-3|---------------|3--3-----------| 

G|---------------|---------------| 
D|---------------|---------------| 
A|---------------|3h5-5-5-5-5-5-5| 
E|3-3-3-3-5-5-5-5|---------------| 


Verse 

G|---------------|---------------|     |---------------|---------------| 
D|---------------|---------------| x3  |---------------|---------------| 
A|5-555-5-5-5-5-5|---------------|     |5-555-5-5-5-5-5|--------5~-----| 
E|---------------|5-555-5-5-5-5-5|     |---------------|5-555-5--------| 

G|---------------|---------------|     |---------------|---------------|---------------|-----------------| 
D|---------------|---------------| x3  |---------------|---------------|---------------|-----------------| 
A|---------------|5-5-5-5-5-5-5-5|     |---------------|3h5-5-5-5-5-5-5|3h5-5-5-5-5-5-5|--------5~-------| 
E|3-3-3-3-3-3-3-3|---------------|     |3-3-3-3-5-5-5-5|---------------|---------------|5-5-5-5----------| 


Chorus 2:20 

G|----------|---------------|---------------|---------------|---------------|---------------| 
D|----------|---------------|---------------|---------------|---------------|---------------| 
A|5---------|---------------|5-5-5-5-5-5-5-5|---------------|5-5-5-5-5-5-5-5|------5-5-5-5--| 
E|----------|3-3-3-3-3-3-3-3|---------------|3-3-3-3-3-3-3-3|---------------|3--3-----------| 

G|---------------|---------------|---------------| 
D|---------------|---------------|---------------| 
A|---------------|3h5-5-5-5-5-5-5|3h5-5-5-5-5-5-5| 
E|3-3-3-3-5-5-5-5|---------------|---------------| 

G|---------------|---------------|---------------|---------------|---------------| 
D|---------------|---------------|---------------|---------------|---------------| 
A|---------------|5-5-5-5-5-5-5-5|---------------|5-5-5-5-5-5-5-5|------5-5-5-5--| 
E|3-3-3-3-3-3-3-3|---------------|3-3-3-3-3-3-3-3|---------------|3--3-----------| 

G|---------------|---------------| 
D|---------------|---------------| 
A|---------------|3h5-5-5-5-5-5-5| 
E|3-3-3-3-5-5-5-5|---------------| 

G|---------------|---------------|---------------|---------------|---------------| 
D|---------------|---------------|---------------|---------------|---------------| 
A|------5-5-5-5--|---------------|3h5-5-5-5-5-5-5|5-555-5-5-5-5-5|--------5~-----| 
E|3--3-----------|3-3-3-3-5-5-5-5|---------------|---------------|5-555-5--------| 

************************************ 

| h   Hammer-on 
| ~   Vibrato 

************************************ 
		  

See also:

bass Silverchair - Leave Me Out bass Tame Impala - Keep On Lying bass Silverchair - Cemetery bass Tame Impala - Feels Like We Only Go Backwards bass The Rumjacks - Me Old Ball And Chain bass Tame Impala - 41 Mosquitoes Flying In Formation
e-chords

Other versions:

bass The Rumjacks - Me Old Ball And Chain
auto scroll beats size up size down change color hide chords drawings
tab show chords e-chords YouTube Clip e-chords hide all tabs e-chords go to top tab

share