The Rolling Stones

home > The Rolling Stones

Susie Q Bass Tab

The Rolling Stones

Difficulty: nolevelnolevel

by renejunior

tuner correct add songbook print version text version save to e-mail
chordsukulelecavacokeyboardtabbassdrumsharmonicsflute Guitar Pro
chords

Susie Q

Key:  E More
Susie Q Key BB
Susie Q Key CC
Susie Q Key C#C#
Susie Q Key DD(one step down)
Susie Q Key D#D#(half step down)
Susie Q Key EE(original key)
Susie Q Key FF(half step up)
Susie Q Key F#F#(one step up)
Susie Q Key GG
Susie Q Key G#G#
Susie Q Key AA
Susie Q Key A#A#
  		
Gtr I (E A D G) - 'Bill Wyman - Bass' 

  Intro 
  Q=160 
  4/4 
   Gtr I 
   Wx2          W          W          Q.   E E Q.     Q.   E E Q. 
G|------------|----------|----------|----------7----|----------7----|| 
D|------------|----------|----------|------7-9------|------7-9------|| 
A|------------|-7--------|-7--------|-7-------------|-7-------------|| 
E|------------|----------|----------|---------------|---------------|| 


  1st & 3rd Verses 
   Segno $ 
   Q.   E E Q.     Q.   E E Q.     Q.   E E Q.     Q.   E E Q. 
G|----------7----|----------7----|----------7----|----------7-----| 
D|------7-9------|------7-9------|------7-9------|------7-9-------| 
A|-7-------------|-7-------------|-7-------------|-7--------------| 
E|---------------|---------------|---------------|----------------| 


   Q.   E E Q.     Q.   E E Q.     Q.   E E Q.     Q.   E E Q. 
G|---------------|---------------|----------7----|----------7-----|| 
D|------9-7------|------7-5------|------7-9------|------7-9-------|| 
A|----------9----|----------7----|-7-------------|-7--------------|| 
E|-7-------------|-5-------------|---------------|----------------|| 


  2nd & 4th Verses 
   Q.   E E Q.     Q.   E E Q.     Q.   E E Q.     Q.   E E Q. 
G|----------7----|----------7----|----------7----|----------7-----| 
D|------7-9------|------7-9------|------7-9------|------7-9-------| 
A|-7-------------|-7-------------|-7-------------|-7--------------| 
E|---------------|---------------|---------------|----------------| 


   Q.   E E Q.     Q.   E E Q.     Q.   E E Q.     Q.   E E Q. 
G|---------------|---------------|----------7----|----------7-----|| 
D|------9-7------|------7-5------|------7-9------|------7-9-------|| 
A|----------9----|----------7----|-7-------------|-7--------------|| 
E|-7-------------|-5-------------|---------------|----------------|| 


  Guitar Solo 
   Q.   E E Q.     Q.   E E Q.     Q.   E E Q.     Q.   E E Q. 
G|----------7----|----------7----|----------7----|----------7-----| 
D|------7-9------|------7-9------|------7-9------|------7-9-------| 
A|-7-------------|-7-------------|-7-------------|-7--------------| 
E|---------------|---------------|---------------|----------------| 


   Q.   E E Q.     Q.   E E Q.     Q.   E E Q.     Q.   E E Q. 
G|---------------|---------------|----------7----|----------7-----| 
D|------7-5------|------7-5------|------7-9------|------7-9-------| 
A|----------7----|----------7----|-7-------------|-7--------------| 
E|-5-------------|-5-------------|---------------|----------------| 


                                                        To Coda 
   Q.   E E Q.     Q.   E E Q.     Q.   E E Q.     Q.   E E Q. 
G|---------------|---------------|----------7----|----------7-----| 
D|------9-7------|------7-5------|------7-9------|------7-9-------| 
A|----------9----|----------7----|-7-------------|-7--------------| 
E|-7-------------|-5-------------|---------------|----------------| 


                                                 Dal Segno al Coda 
   Q.   E E Q.     Q.   E E Q.     Q.   E E Q.     Q.   E E Q. 
G|----------7----|----------7----|----------7----|----------7-----|| 
D|------7-9------|------7-9------|------7-9------|------7-9-------|| 
A|-7-------------|-7-------------|-7-------------|-7--------------|| 
E|---------------|---------------|---------------|----------------|| 


   Coda & 
   Q.   E E Q.     Q.   E E Q.     Q.   E E Q.     Q.   E E Q. 
G|----------7----|----------7----|----------7----|----------7-----*| 
D|------7-9------|------7-9------|------7-9------|------7-9-------*| 
A|-7-------------|-7-------------|-7-------------|-7--------------*| 
E|---------------|---------------|---------------|----------------*|  
	  

Full key step upFull key step up
Half key step upHalf key step up
Half key step downHalf key step down
Full key step downFull key step down
Search Paypal
auto scroll beats size up size down change color hide chords drawings
tab show chords e-chords YouTube Clip e-chords hide all tabs e-chords go to top tab