The Rolling Stones

home > The Rolling Stones

She Was Hot Bass Tab

The Rolling Stones

Difficulty: nolevelnolevel

by jessgomes

tuner correct add songbook print version text version save to e-mail
chordsukulelecavacokeyboardtabbassdrumsharmonicsflute Guitar Pro
chords

She Was Hot

Year: 1983 - Album: Undercover

  		
Intro 
G|--------------------------|--------------------------|-------------------------|---------------------------| 
D|--------------------------|--------------------------|-------------------------|---------------------------| 
A|--------------------------|--------------------------|-------------------------|---------------------------| 
E|----------------------/3--|----------------------/3--|-------------------------|-----------------------\8--| 

Verse & Solo 
G|--------------------------|--------------------------|-------------------------|---------------------------| 
D|--------------------------|--------------------------|-------------------------|---------------------------| 
A|----------------------/3--|----------------------/3--|--5--5--5--5--5--5--5----|------------------------3--| 
E|--3--3--3--3--3--3--3-----|--3--3--3--3--3--3--3-----|----------------------5--|--\3--3--3--3--3--3--3-----| 

G|--------------------------|--------------------------|-------------------------|---------------------------| 
D|--------------------------|--------------------------|-------------------------|---------------------------| 
A|----------------------/3--|----------------------/3--|--5--5--5--5--5--5--5----|------------------------3--| 
E|--3--3--3--3--3--3--3-----|--3--3--3--3--3--3--3-----|----------------------5--|--\3--3--3--3--3--3--3-----| 

G|--------------------------|--------------------------|-------------------------|---------------------------| 
D|--------------------------|--------------------------|-------------------------|---------------------------| 
A|----------------------/3--|----------------------/3--|--5--5--5--5--5--5--5----|---------------------------| 
E|--3--3--3--3--3--3--3-----|--3--3--3--3--3--3--3-----|----------------------5--|--\3--3--3--3--3--3--3--3--| 

Chorus into Verse 
G|--------------------------|--------------------------|-------------------------|---------------------------| 
D|--------------------------|--------------------------|-------------------------|-/7~-----------------------| 
A|--3~----------------------|--/7~---------------------|--5~---------------------|---------------------------| 
E|--------------------------|--------------------------|-------------------------|---------------------------| 

G|--------------------------|--------------------------|-------------------------|---------------------------| 
D|--------------------------|--------------------------|-------------------------|---------------------------| 
A|--3~----------------------|--/7~---------------------|--5~---------------------|-------------------------3-| 
E|--------------------------|--------------------------|-------------------------|---5--\3--3--3--3--3--3----| 

Chorus repeat to Fade 
G|--------------------------|--------------------------|-------------------------|---------------------------| 
D|--------------------------|--------------------------|-------------------------|-/7~-----------------------| 
A|--3~----------------------|--/7~---------------------|--5~---------------------|---------------------------| 
E|--------------------------|--------------------------|-------------------------|---------------------------| 



************************************ 

| /  Slide up 
| \  Slide down 
| ~  Vibrato 

************************************ 
	  

Search Paypal
auto scroll beats size up size down change color hide chords drawings
tab show chords e-chords YouTube Clip e-chords hide all tabs e-chords go to top tab