The Pussycat Dolls

Tainted Love

The Pussycat Dolls

bass Expert expert

by  L.E.O.

save to print version add songbook text version e-mail correct tuner
chordsukulelecavacokeyboardtabbassdrumsharmonicaflute Guitar Pro
close

there isn't a video lesson for this song

chords

Tainted Love

	  		Intro: 
G|--------------------------| 
D|--------------1--1--------| 
A|--------1--1--------1--3--| 
E|--3--3--------------------| 


Sometimes I feel I've got you... 
G|--------------|--------------| 
D|--------------|--------------| 
A|--------------|--1--1--1--1--| 
E|--3--3--3--3--|--------------| 


{Chorus:} 
Once I ran to you 
G|--------------| 
D|--------------| 
A|--------------| 
E|--0--0--0--0--| 

Now I'll run from you 
G|--------------| 
D|--------------| 
A|--------------| 
E|--3--3--3--3--| 

This tainted love you've given 
G|--------------| 
D|--------------| 
A|--3--3--3--3--| 
E|--------------| 

I give you all a girl could give you 
G|--------------| 
D|--------------| 
A|--0--0--0--0--| 
E|--------------| 

Take my tears and that's not nearly all 
G|--------------------------| 
D|--------------1--1--------| 
A|--------1--1--------1--3--| 
E|--3--3--------------------| 

Tainted love, tainted love 
G|--------------------------| 
D|--------------------------| 
A|--3--3--3--3--3--3--3--3--| 
E|--------------------------| 
		  

auto scroll beats size up size down change color hide chords drawings
tab show chords e-chords YouTube Clip e-chords hide all tabs e-chords go to top tab

share