The Pussycat Dolls

Beep

The Pussycat Dolls

bass

by  L.E.O.

save to print version add songbook text version e-mail correct tuner
chordsukulelecavacokeyboardtabbassdrumsharmonicaflute Guitar Pro
close

there isn't a video lesson for this song

chords

Beep

	  		Intro: 
G|-------------------------------| 
D|--10----10----10--10---10--10--| 
A|-------------------------------| 
E|-------------------------------| 

Solo usado na maior parte da música (onde não haver indicação de outro solo): 
G|--0--0--7--7--0--0--0--| 
D|-----------------------| 
A|-----------------------| 
E|-----------------------| 

Ha ha ha ha ha, ha ha ha ha 
Ha ha ha ha ha, ha ha ha ha 

{Chorus:} 
It's funny how a man only thinks about the BEEP 
Ya got a real big heart, but I'm lookin' at yo BEEP 
Ya got big brains, but I'm lookin' at yo BEEP 
Girl it ain't no pain in me lookin' at yo BEEP 
I don't give my BEEP 
Keep lookin' at my BEEP 
'Cuz it don't mean a thing if you look at my BEEP 
Ha, I'mma do my things while you're playin' with yo BEEP 
Ha ha ha, ha ha ha ha BEEP 

Every boy's the same since up in the 7th grade 
They've been tryin' get with me, tryina 
Ha ha ha, ha ha ha 
They always got a plan to be my one and only man 
Wanna hold me with their hands, wanna 
Ha ha ha, ha ha ha 

But I keep turnin' 'em down...  
G|--0--0--0--0--| 
D|--------------| 
A|--------------| 
E|--------------| 

They always come around... 
G|--------------| 
D|--1--1--1--1--| 
A|--------------| 
E|--------------| 

Asking me to go around... 
G|--------------| 
D|--0--0--0--0--| 
A|--------------| 
E|--------------| 

That's not the way it's going down... 
G|--------------------| 
D|--0--0--0--1--3--0--| 
A|--------------------| 
E|--------------------| 

'Cause they only want, only want my... 
G|--0--0--0--0--| 
D|--------------| 
A|--------------| 
E|--------------| 

Ha ha ha ha, ha ha ha 
G|--------------| 
D|--1--1--1--1--| 
A|--------------| 
E|--------------| 

Only want, what they want, but... 
G|--------------| 
D|--0--0--0--0--| 
A|--------------| 
E|--------------| 

Na ah ah, na ah ah 
G|------------7---8---10----12--| 
D|--0--0----0-------------------| 
A|--------------6---8----10-----| 
E|------------------------------| 

{Chorus} 

{Repeat intro} 

Do you know that 'no' don't means 'yes', it's 'no' 
So just hold up, wait a minute, let me put my 2 cents in 
One: just be painted, don't be rushing like your anxitious, and 
Two: your just too aggressive, tryin' get your... aah 

Do you know...? 
G|--0--0--0--0--| 
D|--------------| 
A|--------------| 
E|--------------| 

That I know...? 
G|--------------| 
D|--1--1--1--1--| 
A|--------------| 
E|--------------| 

And I don't... 
G|--------------| 
D|--0--0--0--0--| 
A|--------------| 
E|--------------| 

Wanna go... 
G|--------------------| 
D|--0--0--0--1--3--0--| 
A|--------------------| 
E|--------------------| 

'Cause they only want, only want my... 
G|--0--0--0--0--| 
D|--------------| 
A|--------------| 
E|--------------| 

Ha ha ha, ha ha ha 
G|--------------| 
D|--1--1--1--1--| 
A|--------------| 
E|--------------| 

Only want, what they want, but... 
G|--------------| 
D|--0--0--0--0--| 
A|--------------| 
E|--------------| 

Na ah ah, na ah ah 
G|------------7---8---10----12--| 
D|--0--0----0-------------------| 
A|--------------6---8----10-----| 
E|------------------------------| 

{Chorus} 

{Repeat intro} 

Pom pom pom pom pom pom pom 
Pom pom pom pom pom pom pom 
Oh, you got it bad, I can tell 
You want it bad, bad, oh, well 
'Cuz what you got for me is something I... 
Something I don't need 
Hey! 

{Repeat intro} 

{Chorus} 

{Last Chorus:} 
It's funny how a man only thinks about the BEEP 
G|--0--0--0--0--| 
D|--------------| 
A|--------------| 
E|--------------| 

Ya got a real big heart, but I'm lookin' at yo BEEP 
G|--------------| 
D|--1--1--1--1--| 
A|--------------| 
E|--------------| 

Ya got big brains, but I'm lookin' at yo BEEP 
G|--------------| 
D|--0--0--0--0--| 
A|--------------| 
E|--------------| 

Girl it ain't no pain in me lookin' at yo BEEP 
G|--------------------| 
D|--0--0--0--1--3--0--| 
A|--------------------| 
E|--------------------| 

I don't give my BEEP, keep lookin' at my BEEP 
G|--0--0--0--0--| 
D|--------------| 
A|--------------| 
E|--------------| 

'Cuz it don't mean a thing if you look at my BEEP 
G|--------------| 
D|--1--1--1--1--| 
A|--------------| 
E|--------------| 

Ha, I'mma do my things while you're playin' with yo BEEP 
G|--------------| 
D|--0--0--0--0--| 
A|--------------| 
E|--------------| 

Ha ha ha, ha ha ha ha 

{Repeat intro} 

BEEP 
		  

auto scroll beats size up size down change color hide chords drawings
tab show chords e-chords YouTube Clip e-chords hide all tabs e-chords go to top tab

share