The Police

home > The Police

Message in a Bottle Bass Tab

The Police

Difficulty: ExpertExpert

by pqnino2003

tuner correct add songbook print version text version save to e-mail
chordsukulelecavacokeyboardtabbassdrumsharmonicsflute Guitar Pro
chords

Message in a Bottle

Year: 1986 - Album: Every Breath You Take: The Singles

(Sting)

  		
Verse: 

G|----------------|----------------|----------------|----------------| 
D|--------------4-|--------------4-|--------------4-|--------------4-| 
A|-4-4/-0--2-2----|-4-4/-0--2-2----|-4-4/-0--2-2----|-4-4/-0--2-2----| 
E|----------------|----------------|----------------|----------------| 

G|----------------|----------------|----------------|------------------| 
D|--------------4-|--------------4-|--------------4-|--------------4\6-| 
A|-4-4/-0--2-2----|-4-4/-0--2-2----|-4-4/-0--2-2----|-4-4/-0--2-2------| 
E|----------------|----------------|----------------|------------------| 

G|-----------------------------------------------| 
D|--------------------------0--0--0--2---2--2--2-| 
A|--0--0--0--0--0--0--0--0-----------------------| 
E|-----------------------------------------------| (2x) 

G|-----------------------2-----------------------2--| 
D|--4--4--4--4--4--4--4-----0--0--0--0--0--0--0-----| 
A|--------------------------------------------------| 
E|--------------------------------------------------| (2x) 

G|-----------------------2--------------------------| 
D|--4--4--4--4--4--4--4-----0--0--0--0--0--0--0--4--| 
A|--------------------------------------------------| 
E|--------------------------------------------------|  

G|-----------------------------| 
D|-----------------------------| 
A|--4--4--4--4-0--0--0---------| 
E|----------------------4---4--| (2x) 

G|-----------------------------| 
D|-----------------------------| 
A|--4--4--4--4-0--0--0---------| 
E|----------------------4\2-2--| 

Verse 2: 

G|---------------------------------| 
D|-------------------------4-------| 
A|------------4-4/-0--2-2-----4-4--| 
E|--2--9/--------------------------| 

Verse 3: 

G|---------------------------------| 
D|-------------------------4-------| 
A|------------4-4--0--2-2-----4--4-| 
E|--2------2-----------------------| 

End: 

G|----------------|----------------|----------------|----------------| 
D|--------------4-|--------------4-|--------------4-|--------------4-| 
A|-4-4/-0--2-2----|-4-4/-0--2-2----|-4-4/-0--2-2----|-4-4/-0--2-2----| 
E|----------------|----------------|----------------|----------------| 

	  

Search Paypal
auto scroll beats size up size down change color hide chords drawings
tab show chords e-chords YouTube Clip e-chords hide all tabs e-chords go to top tab