The Offspring

Want You Bad

The Offspring

bass

by  META11EIR0

save to print version add songbook text version e-mail correct tuner
chordsukulelecavacokeyboardtabbassdrumsharmonicaflute Guitar Pro
close

there isn't a video lesson for this song

chords

Want You Bad

Year: 2005 - Album: The Offspring - Greatest Hits

	  		Offspring  
Want You Bad 
 
 
Intro 
G|-----------------------| 
D|-----------------------| 
A|-7-7------------4---2--|  x4 
E|------7-7---5-5--------| 
 
 
Fill 1 
G|-------------------------------|  x1  
D|-------------------------------| 
A|-7777777777777777777777777777--| 
E|-------------------------------| 
 
 
Verso 
G|----------------------------------------------------------------------------| 
D|----------------------------------------------------------------------------| 
A|-7777777777777777--4444444444444444--2222222222222222-----------------------|   x2 
E|-------------------------------------------------------5-55-4-44-5-55-7-77--| 
 
 
Pre-Refrao 
G|---------------------------------| 
D|---------------------------------| x1 
A|-------------------------7-7-7-7-| 
E|-5-5-5-5-7-7-7-7-9-9-9-9---------| 
 
G|---------------------------------|x1 
D|---------------------------------| 
A|---------------------------------| 
E|-5-5-5-5-7-7-7-7-9-9-9-9--x7-----| 
 
 
Refrao 
G|--------------------------------------------------------------------------| 
D|--------------------------------------------------------------------------| 
A|-7-7-7-7-7-7-7-7-7--4-4-4-4-4-4-4-4-4--2-2-2-2-2-2-2-2--------------------|x1 
E|--------------------------------------------------------5-5-4-4-5-5-7-7---| 
 
G|--------------------------------------------------------------------------| 
D|--------------------------------------------------------------------------|x1 
A|-7-7-77-7-7-7-77-7--4-4-4-4-4-4-4-4-4--2-2-2-2-2-2-2-2--------------------| 
E|--------------------------------------------------------555-444-555-777---| 
 
 
Fill 2 
G|----------------------------------| 
D|----------------------------------| 
A|-7777777777777777777777-7x---7---| 
E|----------------------------------|x1 
 
 
Ponte  
G|----------------------------------------------------------------------| 
D|--------------------2-----------------------------2-------------------| 
A|--2*----2-----0---------------2*-----2------0------------2/12---------| 
E|----------------------------------------------------------------------| 
 
 
Solo Parte 1 
G|------------------------------------------------------------------------------------------------| 
D|------------------------------------------------------------------------------------------------| 
A|-666666666666666--444444444444444--22222--7777777777777--66666666666666--12-12-12-12-12-12-12---| 
E|------------------------------------------------------------------------------------------------| 
 
Solo Parte 2 
G|---------------------------------------------------------------------------------------------------------| 
D|---------------------------------------------------------------------------------------------------------| 
A|-777777777777777-----999999999999999-----11-11-11-11-11-11-11-11-11-----14-14-14-14-14-14-14-14-14-------| 
E|---------------------------------------------------------------------------------------------------------| 
 
 
Final  
G|----------------------------------| 
D|----------------------------------| 
A|-----7----------------------------| 
E|----------------------------------| 
 
Divirta-se 
 

		  

See also:

bass Guns N' Roses - Rocket Queen bass Live - Dolphin“s Cry bass Foo Fighters - My Hero bass Dave Matthews Band - #41 bass Guns N' Roses - Welcome To The Jungle (ver. 2) bass Aerosmith - I Don't Want To Miss A Thing (ver. 2)
e-chords

Other versions:

bass The Offspring - Want You Bad
auto scroll beats size up size down change color hide chords drawings
tab show chords e-chords YouTube Clip e-chords hide all tabs e-chords go to top tab

share