The Murmaids

Popsicles And Icicles

The Murmaids

bass

by  LUCICAMARGO

save to print version add songbook text version e-mail correct tuner
chordsukulelecavacokeyboardtabbassdrumsharmonicaflute Guitar Pro
close

there isn't a video lesson for this song

chords

Popsicles And Icicles

	  		 
G|----------------------------------------------------------------| 
D|--------------------------------5-----------5---5-------5-------| 
A|6---------------6-------6---------------------------------------| 
E|------------6---------------------------------------------------| 

G|----------------------------------------------------------------| 
D|----------------------------------------------------------------| 
A|4-----------4---4-------4---------------------------------------| 
E|--------------------------------4-----------4---4-------4-------| 

G|----------------------------------------------------------------| 
D|----------------------------------------------------------------| 
A|----------------------------------------------------------------| 
E|4-----------4---4-------4-------6-----------6---6-------6-------| 

G|----------------------------------------------------------------| 
D|----------------------------------------------------------------| 
A|6-----------6---6-------6-------------------------------3---5---| 
E|--------------------------------6-----------6---6---6-----------| 

0:15 

G|----------------------------------------------------------------| 
D|----------------------------6---5-----------5---5-------5-------| 
A|6-----------6---6-----------------------------------------------| 
E|----------------------------------------------------------------| 

G|----------------------------------------------------------------| 
D|----------------------------------------------------------------| 
A|4-----------4---4-------4---------------------------------------| 
E|--------------------------------4-----------4---4-------4-------| 

G|----------------------------------------------------------------| 
D|----------------------------------------------------------------| 
A|----------------------------------------------------------------| 
E|4-----------4---4-------4-------6-----------6---6-------6-------| 

G|----------------------------------------------------------------| 
D|----------------------------------------------------------------| 
A|6-----------6---6-------6-------------------------------3---5---| 
E|--------------------------------6-----------6---6---6-----------| 

0:31 

G|----------------------------------------------------------------| 
D|------------------------8---6---5-----------5---5-------5-------| 
A|6-----------6---6-----------------------------------------------| 
E|----------------------------------------------------------------| 

G|----------------------------------------------------------------| 
D|----------------------------------------------------------------| 
A|4-----------4---4-------4---------------------------------------| 
E|--------------------------------4-----------4---4-------4-------| 

G|----------------------------------------------------------------| 
D|----------------------------------------------------------------| 
A|----------------------------------------------------------------| 
E|4-----------4---4-------4-------6-----------6---6-------6-------| 

G|----------------------------------------------------------------| 
D|--------------------------------------------------------5-------| 
A|6-----------6---6-------6-------6-----------6---8---------------| 
E|----------------------------------------------------------------| 

0:47 

G|----------------------------------------------------------------| 
D|6-----------6---6-------6---------------------------------------| 
A|----------------------------------------------------------------| 
E|--------------------------------6-----------6---6-------6-------| 

G|----------------------------------------------------------------| 
D|--------------------------------------------------------5-------| 
A|6-----------6---6-------6-------6-----------6---8---------------| 
E|----------------------------------------------------------------| 

G|----------------------------------------------------------------| 
D|6-----------6---6-------6---------------------------------------| 
A|----------------------------------------------------------------| 
E|--------------------------------6-----------6---6-------6-------| 

G|----------------------------------------------------------------| 
D|----------------------------------------------------------------| 
A|6-----------6---6-------6-------------------------------3---5---| 
E|--------------------------------6-----------6---6---6-----------| 

1:02 

G|----------------------------------------------------------------| 
D|------------------------8---6---5-----------5---5-------5-------| 
A|6-----------6---6-----------------------------------------------| 
E|----------------------------------------------------------------| 

G|----------------------------------------------------------------| 
D|----------------------------------------------------------------| 
A|4-----------4---4-------4---------------------------------------| 
E|--------------------------------4-----------4---4-------4-------| 

G|----------------------------------------------------------------| 
D|----------------------------------------------------------------| 
A|----------------------------------------------------------------| 
E|4-----------4---4-------4-------6-----------6---6-------6-------| 

G|----------------------------------------------------------------| 
D|----------------------------------------------------------------| 
A|6-----------6---6-------6---------------------------------------| 
E|--------------------------------6-----------6---6-------6-------| 

1:17 

G|----------------------------------------------------------------| 
D|--------------------------------5-----------5---5-------5-------| 
A|6-----------6---6-------6---------------------------------------| 
E|----------------------------------------------------------------| 

G|----------------------------------------------------------------| 
D|----------------------------------------------------------------| 
A|4-----------4---4-------4---------------------------------------| 
E|--------------------------------4-----------4---4-------4-------| 

G|----------------------------------------------------------------| 
D|----------------------------------------------------------------| 
A|----------------------------------------------------------------| 
E|4-----------4---4-------4-------6-----------6---6-------6-------| 

G|----------------------------------------------------------------| 
D|--------------------------------------------------------5-------| 
A|6-----------6---6-------6-------6-----------6---8---------------| 
E|----------------------------------------------------------------| 

1:33 

G|----------------------------------------------------------------| 
D|6-----------6---6-------6---------------------------------------| 
A|----------------------------------------------------------------| 
E|--------------------------------6-----------6---6-------6-------| 

G|----------------------------------------------------------------| 
D|--------------------------------------------------------5-------| 
A|6-----------6---6-------6-------6-----------6---8---------------| 
E|----------------------------------------------------------------| 

G|----------------------------------------------------------------| 
D|6-----------6---6-------6---------------------------------------| 
A|----------------------------------------------------------------| 
E|--------------------------------6-----------6---6-------6-------| 

G|----------------------------------------------------------------| 
D|----------------------------------------------------------------| 
A|6-----------6---6-------6-------------------------------3---5---| 
E|--------------------------------6-----------6---6---6-----------| 

1:48 

G|----------------------------------------------------------------| 
D|------------------------8---6---5-----------5---5-------5-------| 
A|6-----------6---6-----------------------------------------------| 
E|----------------------------------------------------------------| 

G|----------------------------------------------------------------| 
D|----------------------------------------------------------------| 
A|4-----------4---4-------4---------------------------------------| 
E|--------------------------------4-----------4---4-------4-------| 

G|----------------------------------------------------------------| 
D|----------------------------------------------------------------| 
A|----------------------------------------------------------------| 
E|4-----------4---4-------4-------6-----------6---6-------6-------| 

G|----------------------------------------------------------------| 
D|----------------------------------------------------------------| 
A|6-----------6---6-------6-------------------------------3---5---| 
E|--------------------------------6-----------6---6---6-----------| 

2:04 

G|----------------------------------------------------------------| 
D|------------------------8---6---5-----------5---5-------5-------| 
A|6-----------6---6-----------------------------------------------| 
E|----------------------------------------------------------------| 

G|----------------------------------------------------------------| 
D|----------------------------------------------------------------| 
A|4-----------4---4-------4---------------------------------------| 
E|--------------------------------4-----------4---4-------4-------| 

G|----------------------------------------------------------------| 
D|----------------------------------------------------------------| 
A|----------------------------------------------------------------| 
E|4-----------4---4-------4-------6-----------6---6-------6-------| 

G|----------------------------------------------------------------| 
D|----------------------------------------------------------------| 
A|6-----------6---6-------6---------------------------------------| 
E|--------------------------------6-----------6---6-------6-------| 

2:19 

G|----------------------------------------------------------------| 
D|--------------------------------5-----------5---5-------5-------| 
A|6-----------6---6-------6---------------------------------------| 
E|----------------------------------------------------------------| 

G|----------------------------------------------------| 
D|--------------------------------5---------------5---| 
A|6-----------6---6-------6---------------------------| 
E|----------------------------------------------------| 
		  

auto scroll beats size up size down change color hide chords drawings
tab show chords e-chords YouTube Clip e-chords hide all tabs e-chords go to top tab

share