The Monkees

Goin Down

The Monkees

bass

by  CARLLUZ

save to print version add songbook text version e-mail correct tuner
chordsukulelecavacokeyboardtabbassdrumsharmonicaflute Guitar Pro
close

there isn't a video lesson for this song

chords

Goin Down

	  		

Tuning: EADG 

G|----9---7---6-----------------------9---7---6-------------------| 
D|----------------9---7---6---4-------------------9---7---6---4---| 
A|--------------------------------7-------------------------------| 
E|----------------------------------------------------------------| 

0:04 

G|----9---7---6---------------------------------------------------| 
D|----------------9---7---6---4-----------------------------------| 
A|7-------------------------------7---7---5---4-------------------| 
E|------------------------------------------------7---5---4---2---| 

G|----------------------------------------------------------------| 
D|----------------------------------------------------------------| 
A|------------2---3---4---5---6---7---7---5---4---------------5---| 
E|0---2---4---------------------------------------7---5---7-------| 

G|----------------------------------------------------------------| 
D|--------------------------------7---------------10--10----------| 
A|7-----------7-----------7---------------------------------------| 
E|----------------------------------------------------------------| 

G|----------------------------------------------------------------| 
D|----------------------------------------------------------------| 
A|----7---5---4-----------------------------------2---3---4---5---| 
E|----------------7---5---4---2---0---2---4---5-------------------| 

0:21 

G|----9---7---6---------------------------------------------------| 
D|----------------9---7---6---4-----------------------------------| 
A|7-------------------------------7---7---5---4-------------------| 
E|------------------------------------------------7---5---4---2---| 

G|----------------------------------------------------------------| 
D|----------------------------------------------------------------| 
A|----------------2---3---4---5---7---7---5---4-------------------| 
E|0---2---4---5-----------------------------------7---5---4-------| 

G|----------------------------------------------------------------| 
D|--------------------------------7---------------10--10----------| 
A|7-----------7-----------7---------------------------------------| 
E|----------------------------------------------------------------| 

G|----------------------------------------------------------------| 
D|----------------------------------------------------------------| 
A|----7---5---4-------------------------------2---3---4---5---6---| 
E|----------------7---5---4---2---0---2---4-----------------------| 

0:37 

G|----9---7---6---------------------------------------------------| 
D|----------------9---7---6---4-----------------------------------| 
A|7-------------------------------7---7---5---4-------------------| 
E|------------------------------------------------7---5---4---2---| 

G|----9---7---6---------------------------------------------------| 
D|----------------9---7---6---4-----------------------------------| 
A|--------------------------------7---7---5---4-------------------| 
E|0-----------------------------------------------7---5---4---2---| 

G|----------------------------------------------------------------| 
D|----------------------------------------------------------------| 
A|------------------------------------------------3---3-----------| 
E|0-----------0-----------0-------5-------------------------------| 

G|----------------------------------------------------------------| 
D|----------------------------------------------------------------| 
A|----7---5---4-----------------------------------2---3---4---5---| 
E|----------------7---5---4---2---0---2---3---4-------------------| 

0:53 

G|----------------------------------------------------------------| 
D|----------------------------------------------------------------| 
A|7---7---5---4-------------------------------2---4---5---6---6---| 
E|----------------7---5---4---2---0---2---4-----------------------| 

G|----------------------------------------------------------------| 
D|----------------------------------------------------------------| 
A|7---7---5---4-------------------------------2---3---4---5---6---| 
E|----------------7---5---4---2---0---2---4-----------------------| 

G|----------------------------------------------------------------| 
D|--------------------------------7---------------10--10----------| 
A|7-----------7-----------7---------------------------------------| 
E|----------------------------------------------------------------| 

G|----------------------------------------------------------------| 
D|----------------------------------------------------------------| 
A|----7---5---4-------------------------------2---3---4---5---5---| 
E|----------------7---5---4---2---0---2---4-----------------------| 

1:09 

G|----9---7---6---------------------------------------------------| 
D|----------------9---7---6---4-----------------------------------| 
A|7-------------------------------7---7---5---4-------------------| 
E|------------------------------------------------7---5---4---2---| 

G|------------------------------------9---7---6-------------------| 
D|------------------------------------------------9---7---6---4---| 
A|------------2---3---4---5---6---7-------------------------------| 
E|0---2---4-------------------------------------------------------| 

G|----------------------------------------------------------------| 
D|--------------------------------7---------------10--10----------| 
A|7-----------7-----------7---------------------------------------| 
E|----------------------------------------------------------------| 

G|----------------------------------------------------------------| 
D|----------------------------------------------------------------| 
A|----7---5---4-------------------------------2---3---4---5---6---| 
E|----------------7---5---4---2---0---2---4-----------------------| 

1:26 

G|----------------------------------------------------------------| 
D|----------------------------------------------------------------| 
A|7---7-------5---7---7---6---5---4---4-------3-4-----4---5---6---| 
E|--------7-------------------------------4---------4-------------| 

G|----------------------------------------------------------------| 
D|----------------------------------------------------------------| 
A|7---7-------5-----7-----6---5---4-------------4-----4---5---6---| 
E|--------7-----7-------------------------4---------4-------------| 

G|----9---7---6-----------------------6---4-----------------------| 
D|----------------9---7---6-------------------6---4---3-----------| 
A|7---------------------------7-\-4-----------------------6---4---| 
E|----------------------------------------------------------------| 

G|----9---7---6-----------------------6---4-----------------------| 
D|----------------9---7---6-------------------6---4---2-----------| x2 
A|7---------------------------7---4-----------------------4---2-/-| 
E|----------------------------------------------------------------| 

G|------------------------------------6---4-----------------------| 
D|--------------------------------------------6---4---------------| 
A|7---7---5---4-------------------4-------------------6---4---2---| 
E|----------------7---5---4---2-----------------------------------| 

G|--------9---7---6-----------------------6---4-------------------| 
D|--------------------9---7-----------------------6---4---2-------| 
A|2-/-7-----------------------7-\-4---4-----------------------2-/-| 
E|----------------------------------------------------------------| 

1:54 

G|----------------------------------------------------------------| 
D|----------------------------------------------------------------| x3 
A|7-------------7-----7---6---5---4-------------4-----4---5---6---| 
E|--------7---------7---------------------4---------4-------------| 

G|----------------------------------------------------------------| 
D|----------------------------------------------------------------| x2 
A|7-------------7-------------2---4-------------4-------------2-/-| 
E|--------7---------0-2---4---------------4---------0-2---4-------| 

G|----------------------------------------------------------------| 
D|----------------------------------------------------------------| 
A|7-------------7-----7---6---5---4-------------4-----4---5---6---| 
E|--------7-------------------------------4---------4-------------| 

G|----------------------------------------------------------------| 
D|----------------------------------------------------------------| 
A|7-------------7-----7---6---5---4---4-------4---4---5---6---0---| 
E|--------7---------7---------------------4-----------------------| 

2:22 

G|----9---7---6-----------------------6---4-----------------------| 
D|----------------9---7---6-------------------6---4---2-----------| 
A|7---------------------------7---4-----------------------4---2-/-| 
E|----------------------------------------------------------------| 

G|--------9---7---6-------------------6---4-----------------------| 
D|--------------------9---7-------------------6---4-\-2-----------| 
A|7---7-----------------------7-\-4-----------------------2---0---| 
E|----------------------------------------------------------------| 

G|--------9---7---6-------------------6---4-----------------------| 
D|--------------------9---7-------------------6---4---2-----------| 
A|4---7-----------------------7-\-4-----------------------4---2-/-| 
E|----------------------------------------------------------------| 

G|----9---7---6-----------------------6---4-----------------------| 
D|----------------9---7---6-------------------6---4---------------| 
A|7---------------------------7-\-4-------------------6---4-\-2---| 
E|----------------------------------------------------------------| 

2:38 

G|----------------------------------------------------------------| 
D|----------------------------------------------------------------| 
A|------------2---2---3---3-------4---4---2-----------------------| 
E|0---2---4-------------------4---------------4---2---0---2---4---| 

G|------------------------------------6---4-----------------------| 
D|--------------------------------------------6---4---2-----------| 
A|------------0---2---2---3---3---4-----------------------4---2---| 
E|0---2---4-------------------------------------------------------| 

G|--------------------------------------------6---4---------------| 
D|----------------------------------------------------6---4-------| 
A|------------2---4---5---6---7---5---4---6-------------------2---| 
E|0---2---4-------------------------------------------------------| 

G|--------9---7---6-------------------4---6-----------------------| 
D|--------------------9---7---------------------------4-----------| 
A|7---7-----------------------7-\-2-----------------------6---0---| 
E|----------------------------------------------------------------| 

G|----9---7---6-----------------------6---4-----------------------| 
D|----------------9---7---6-------------------6---4---2-----------| 
A|7---------------------------6---4-----------------------4---2-/-| 
E|----------------------------------------------------------------| 

G|----------------------------------------------------------------| 
D|----------------------------------------------------------------| x2 
A|7-------------7-----7---6---5---4-------------4-----4---5---6---| 
E|--------7---------7---------------------4---------4-------------| 

3:06 

G|----------------------------------------------4/6-----4-----------| 
D|----------------------------------------------------------6-------| 
A|7-------------7-----7---6---5---4-----------------------------0---| 
E|--------7---------7---------------------4-------------------------| 

G|----------------------------------------------4/6-----4-----------| 
D|----------------------------------------------------------6---4---| 
A|7-------------7-----7---6---5---4---------------------------------| 
E|--------7---------7---------------------4-------------------------| 

G|--------------------------------------------/-9-----7---6-------| 
D|------------------------------------------------------------9---| 
A|7-------------7-----7---6---5---4-------------------------------| 
E|--------7---------7---------------------4-----------------------| 

G|----------------------------------------------6-----4-----------| 
D|--------------------------------------------------------6---4---| 
A|7-------------7-----7---6---5---4-------------------------------| 
E|--------7-------------------------------4---/-------------------| 

3:22 

G|--------9-----------9---8---7---6-------------6-----6---7---8---| 
D|--------------9-------------------------6---------6-------------| 
A|7---------------------------------------------------------------| 
E|----------------------------------------------------------------| 

G|9---9---9---9---9---9---8---7---6---6---6---6---6---5---4-------| 
D|------------------------------------------------------------6---| 
A|----------------------------------------------------------------| 
E|----------------------------------------------------------------| 

G|----------------------------------------6---4-------------------| 
D|------------------------------------------------6---4---2-------| 
A|7---7---7---7---7---6---5---0---4---4-----------------------2-/-| 
E|----------------------------------------------------------------| 

G|----9---7---6-----------------------6---4-----------------------| 
D|----------------9---7---5-------------------6---4-\-2-----------| 
A|7---------------------------7-\-4-----------------------4---2-/-| 
E|----------------------------------------------------------------| 

3:38 

G|----9---7---6-----------------------6---4-----------------------| 
D|----------------9---7---6-------------------6---4---------------| 
A|7---------------------------7-\-4-----------------5-2---3---4---| 
E|----------------------------------------------------------------| 

G|------9---7---6-----------------------6---4-----------------------| 
D|------------------9---7-\-5-------------------6-------------------| 
A|5/7---------------------------7-\-4---------------7---0---2---3---| 
E|------------------------------------------------------------------| 

G|------9---7---6-----------------------6---4-----------------------| 
D|------------------9---7---6-------------------6---4-\-2-----------| 
A|6/7---------------------------7-\-4-----------------------0---2-/-| 
E|------------------------------------------------------------------| 

G|----9---7---6-----------------------6---4-----------------------| 
D|----------------9---7---6---4\2-------------6---4---2-----------| 
A|7-------------------------------4-----------------------4---2---| 
E|----------------------------------------------------------------| 

3:54 

G|----------------------------------------/-6---4-------------------| 
D|--------------------------------------------------7---6---4-------| 
A|6h7---7-----------5---6---7---6---4---4-----------------------0---| 
E|----------0---7---------------------------------------------------| 

G|----9---7---6---------------------/-6---4---3-------------------| 
D|----------------9---7---6-----------------------6---4---3-------| 
A|7---------------------------7-\-4---------------------------6---| 
E|----------------------------------------------------------------| 

G|------9---7---6---------------------/-6---4-----------------------| 
D|------------------9---7---5-------------------6---4-\-2-----------| 
A|4/7---------------------------7-\-4-----------------------4---2-/-| 
E|------------------------------------------------------------------| 

4:07 

G|----------------------------------------------------------------| 
D|----------------------------------------------------------------| 
A|7---7-------------------2---3---4---4---2-----------------------| 
E|--------0---2---4---5-----------------------4---2---0---2---4---| 

G|------------------------------------6---4-----------------------| 
D|--------------------2-----------------------6---4---2-----------| 
A|----------------2-------5---2---4-----------------------4---2-/-| 
E|0---2---4---5---------------------------------------------------| 

G|----9---7---6---------------------/-6---4-----------------------| 
D|----------------9---7---5-------------------6---4---------------| 
A|7---------------------------7-\-4-------------------6---0---4-/-| 
E|----------------------------------------------------------------| 

G|----9---7---6-----------------------| 
D|----------------9---7---6-----------| fades out here. 
A|7---------------------------7-\-4---| 
E|------------------------------------| 
		  

See also:

bass Guns N' Roses - Welcome to The Jungle bass Creed - One Last Breath bass The Offspring - Want You Bad bass Aerosmith - I Don't Want To Miss A Thing bass Aerosmith - Crazy bass Aerosmith - Dude Looks Like A Lady
e-chords

Other versions:

bass Godsmack - Goin Down bass The Monkees - Goin Down bass Godsmack - Goin' Down bass Godsmack - Goin' Down (ver. 2) bass Godsmack - Goin' Down (ver. 3)
auto scroll beats size up size down change color hide chords drawings
tab show chords e-chords YouTube Clip e-chords hide all tabs e-chords go to top tab

share