The Mascots

Growing Old

The Mascots

bass

by  ANDRSOUZA

save to print version add songbook text version e-mail correct tuner
chordsukulelecavacokeyboardtabbassdrumsharmonicaflute Guitar Pro
close

there isn't a video lesson for this song

chords

Growing Old

	  		Intro 
G|---------------------------------------------------------------------------| 
D|---------------------------------------------------------------------------| 
A|---------------------------------------------------------------------------| 
D|-0000000000000--7777777777777777--45555555----45555555---------------------| 

G|---------------------------------------------------------------------------| 
D|---------------------------------------------------------------------------| 
A|---------------------------------------------------------------------------| X2 
D|-99999999---77777777-------------------------------------------------------| 

Verse  "I'm the shell of a man with walls to the sky" 
G|---------------------------------------------------------------------------| 
D|---------------------------------------------------------------------------| 
A|---------------------------------------------------------------------------| X4 
D|--455-5-455-5---------------077-7--077-7-----------------------------------| 

G|---------------------------------------------------------------------------| 
D|---------------------------------------------------------------------------| 
A|---------------------------------------------------------------------------| 
D|--45555555---45555555----07777777----07777777------------------------------| X2 

G|---------------------------------------------------------------------------| 
D|---------------------------------------------------------------------------| 
A|---------------------------------------------------------------------------| 
D|---5~-----------12/--------------------------------------------------------| 

Chorus 
G|---------------------------------------------------------------------------| 
D|---------------------------------------------------------------------------| 
A|---------------------------------------------------------------------------| 
D|-0000000000000--7777777777777777--45555555----45555555---------------------| 

G|---------------------------------------------------------------------------| 
D|---------------------------------------------------------------------------| 
A|---------------------------------------------------------------------------| X2 
D|-99999999---77777777-------------------------------------------------------| 

Verse  "Always up for the letdown" 
G|---------------------------------------------------------------------------| 
D|---------------------------------------------------------------------------| 
A|---------------------------------------------------------------------------| X2 
D|--455-5-455-5---------------077-7--077-7-----------------------------------| 

G|---------------------------------------------------------------------------| 
D|---------------------------------------------------------------------------| 
A|---------------------------------------------------------------------------| 
D|--45555555---45555555----07777777----07777777------------------------------| X2 

G|---------------------------------------------------------------------------| 
D|---------------------------------------------------------------------------| 
A|---------------------------------------------------------------------------| 
D|---5~----------------------------------------------------------------------| 

Chorus 
G|---------------------------------------------------------------------------| 
D|---------------------------------------------------------------------------| 
A|---------------------------------------------------------------------------| 
D|-0000000000000--7777777777777777--45555555----45555555---------------------| 

G|---------------------------------------------------------------------------| 
D|---------------------------------------------------------------------------| 
A|---------------------------------------------------------------------------| X2 
D|-99999999---77777777-------------------------------------------------------| 

Bridge 
G|---------------------------------------------------------------------------| 
D|---------------------------------------------------------------------------| 
A|---------------------------------------------------------------------------| 
D|--000-222-444-0~---------000-555-444-0~------------------------------------| X4 

G|---------------------------------------------------------------------------| 
D|---------------------------------------------------------------------------| 
A|---------------------------------------------------------------------------| 
D|--000-222-444-00000000---000-555-444-00000000------------------------------| X4 

No Bass Here "I'm just so small in the heart of it all..." 

Outro 
G|---------------------------------------------------------------------------| 
D|---------------------------------------------------------------------------| 
A|---------------------------------------------------------------------------| 
D|--45555555--45555555------99999999-----77777777----------------------------| 

G|---------------------------------------------------------------------------| 
D|---------------------------------------------------------------------------| 
A|---------------------------------------------------------------------------| 
D|-0000000000000--7777777777777777--45555555----45555555---------------------| 

G|---------------------------------------------------------------------------| 
D|---------------------------------------------------------------------------| 
A|---------------------------------------------------------------------------|  
D|-99999999---77777777---0000000000000000---7777777777777777----2---4---0~---| 

************************************ 

| /   Slide up 
| ~   Vibrato 

************************************ 
		  

See also:

bass Deep Purple - Smoke On The Water bass Deep Purple - Burn Ver.(2) bass Deep Purple - Burn (ver. 2) bass Deep Purple - Smoke On The Water (ver. 3) bass Deep Purple - Fire Ball bass Deep Purple - Highway Star
e-chords

Other versions:

bass The Mascots - Growing Old
auto scroll beats size up size down change color hide chords drawings
tab show chords e-chords YouTube Clip e-chords hide all tabs e-chords go to top tab

share