The Mamas & The Papas

I Can't Wait

The Mamas & The Papas

bass

by  RENEJUNIOR

save to print version add songbook text version e-mail correct tuner
chordsukulelecavacokeyboardtabbassdrumsharmonicaflute Guitar Pro
close

there isn't a video lesson for this song

chords

I Can't Wait

	  		
Tuning: EADG 

G|------------------------------------------------------------------------------------------------| 
D|------------------------4-------3-------1---------------------------------------1---------------| 
A|2---1---2---------------------------------------4---2---4---4-------2---4-----------------------| 
E|------------4-------4---------------------------------------------------------------------------| 

G|--------------------------------------------------------------------------------| 
D|------------------------4-------3-------1---------------------------0-------1---| 
A|2---1---2---------------------------------------4-------4---2---4---------------| 
E|------------4-------4-----------------------------------------------------------| 

G|--------------------------------| 
D|--------------------------------| 
A|--------------------------------| 
E|--------------------------------| 

0:13 

G|----------------------------------------------------------------| 
D|6-------6---------------4---5---6-------6-----------4---5---6---| 
A|----------------6-------------------------------6---------------| 
E|----------------------------------------------------------------| 

G|----------------------------------------------------------------| 
D|----------------------------------------------------------------| 
A|4-------------------------------4-----------4---------------4---| 
E|--------6-------4-------6-----------4---6-----------4---6-------| 

G|--------------------------------4-------4---------------4-------| 
D|6-------6---------------4---6-------------------4---4-------4---| 
A|----------------6-----------------------------------------------| 
E|----------------------------------------------------------------| 

G|----------------------------------------------------------------| 
D|----------------------------------------------------------------| 
A|6---6---6---6---6---6---6---6---6---6---6---6---6---6---6---6---| 
E|----------------------------------------------------------------| 

0:29 

G|----------------------------------------------------------------| 
D|6-------6---------------4---5---6-------6-------4---5---6-------| 
A|----------------6---6-----------------------6---------------6---| 
E|----------------------------------------------------------------| 

G|----------------------------------------------------------------| 
D|----------------------------------------------------------------| 
A|4-------4---------------2---3---4-------4-------2---4-------2---| 
E|----------------4---4-----------------------4-----------4-------| 

G|----------------------------------------------------------------| 
D|6-------6---------------4---5---6-------6-------4---5---6-------| 
A|--------------------6-----------------------6---------------6---| 
E|----------------------------------------------------------------| 

G|----------------------------------------------------------------| 
D|----------------------------------------------------------------| 
A|4-------4---4---4---4---4---4---6---6---6---6---6---6---6---6---| 
E|----------------------------------------------------------------| 

G|--------------------------------| 
D|6-------4---------------4-------| 
A|----------------6---------------| 
E|--------------------------------| 

G|------------------------------------------------| 
D|6---4-----------4-------------------------------| 
A|--------6---4-------6---------------------------| 
E|------------------------------------------------| 

0:50 

G|----------------------------------------------------------------| 
D|6-------6---------------4---5---6-------6-------4---5---6-------| 
A|----------------6---------------------------6---------------6---| 
E|----------------------------------------------------------------| 

G|----------------------------------------------------------------| 
D|----------------------------------------------------3---4---5---| 
A|4-------4---------------2---3---4-------4-------4---------------| 
E|----------------4---4-------------------------------------------| 

G|----------------------------------------------------------------| 
D|6---6---6---6---6---6---6---6---9---9---9---9---9---9---9---9---| 
A|----------------------------------------------------------------| 
E|----------------------------------------------------------------| 

G|----------------------------------------------------------------| 
D|----------------------------------------------------------------| 
A|6---6---6---6---6---6---6---6---6---6---6---6---6---6---6---6---| 
E|----------------------------------------------------------------| 

1:06 

G|----------------------------------------------------------------| 
D|6-------6---------------4---5---6-------6-------4---5---6-------| 
A|----------------6---6-----------------------6---------------6---| 
E|----------------------------------------------------------------| 

G|----------------------------------------------------------------| 
D|----------------------------------------------------------------| 
A|4-------4---------------2---3---4---------------2---4-------2---| 
E|----------------4---4-----------------------4-----------4-------| 

G|----------------------------------------------------------------| 
D|6-------6---------------4---5---6-------6-------4---5---6-------| 
A|----------------6---6-----------------------6---------------6---| 
E|----------------------------------------------------------------| 

G|----------------------------------------------------------------| 
D|--------------------------------------------------------4---5---| 
A|4---4---4---4---4---4---4---4---6---6---6---6---6---6-----------| 
E|----------------------------------------------------------------| 

G|--------------------------------| 
D|6-------6-----------4-----------| 
A|----------------6---------------| 
E|--------------------------------| 

G|----------------------------------------------------------------| 
D|6---4-----------4-----------------------------------------------| 
A|--------6---4-------6-------------------------------------------| 
E|----------------------------------------------------------------| 

1:28 

G|----------------------------------------------------------------| 
D|6-------6---------------4---5---6-------6-------4---5---6-------| 
A|----------------6---------------------------6---------------6---| 
E|----------------------------------------------------------------| 

G|----------------------------------------------------------------| 
D|----------------------------------------------------------------| 
A|4-------4---------------2---3---4-------4-------2---4-------2---| 
E|----------------4---4-----------------------4-----------4-------| 

G|----------------------------------------------------------------| 
D|6-------6-----------4---5---6---6-------6-------4---5---6-------| 
A|----------------6---------------------------6---------------6---| 
E|----------------------------------------------------------------| 

G|----------------------------------------------------------------| 
D|----------------------------------------------------------------| 
A|4---4---4---4---4---4---4---4---6---6---6---6---6---6---6---6---| 
E|----------------------------------------------------------------| 

G|----------------------------------------------------------------| 
D|6-------6-----------4---5---6-----------------------------------| 
A|----------------6---------------6---6---6---6---6---6---6---6---| 
E|----------------------------------------------------------------| 

1:48 

G|----------------------------------------------------------------| 
D|6-------6-----------4---5---6---6-------6-------6---5---4---3---| 
A|----------------6-----------------------------------------------| 
E|----------------------------------------------------------------| 

G|----------------------------------------------------------------| 
D|----------------------------------------------------3---4---5---| 
A|4-------4---------------2---3---4-------4-------4---------------| 
E|----------------4---4-------------------------------------------| 

G|----------------------------------------------------------------| 
D|6---6---6---6---6---6---6---6---9---9---9---9---9---9---9---9---| 
A|----------------------------------------------------------------| 
E|----------------------------------------------------------------| 

G|----------------------------------------------------------------| 
D|----------------------------------------------------------------| 
A|6---6---6---6---6---6---6---6---6---6---6---6---6---6---6---6---| 
E|----------------------------------------------------------------| 

2:04 

G|----------------------------------------------------------------| 
D|6-------6---------------4---5---6-------6-------4---5---6-------| 
A|----------------6---6-----------------------6---------------6---| 
E|----------------------------------------------------------------| 

G|----------------------------------------------------------------| 
D|----------------------------------------------------------------| 
A|4-------4---------------2---3---4-------4-------2---4-------2---| 
E|----------------4---4-----------------------4-----------4-------| 

G|----------------------------------------------------------------| 
D|6-------6-----------4---5---6---6-------6-------4---5---6-------| 
A|----------------6---------------------------6---------------6---| 
E|----------------------------------------------------------------| 

G|----------------------------------------------------------------| 
D|----------------------------------------------------------------| 
A|4---4---4---4---4---4---4---4---6---6---6---6---6---6---6---6---| 
E|----------------------------------------------------------------| 

G|----------------------------------------------------------------| 
D|6-------6-----------6-------------------------------------------| 
A|----------------6-------4---5---6-------------------------------| 
E|----------------------------------------------------------------| 

2:24 

G|------------------------------------------------------------------------------------------------| 
D|------------------------4-------3-------1---------------------------------------1---------------| 
A|2---1---2---------------------------------------4---2---4---4-------2---4-----------------------| 
E|------------4-------4---------------------------------------------------------------------------| 

G|--------------------------------------------------------------------------------| 
D|------------------------4-------3-------1---------------------------0-------1---| 
A|2---1---2---------------------------------------4-------4---2---4---------------| 
E|------------4-------4-----------------------------------------------------------| 
		  

auto scroll beats size up size down change color hide chords drawings
tab show chords e-chords YouTube Clip e-chords hide all tabs e-chords go to top tab

share