The Lovin' Spoonful

Younger Girl

The Lovin' Spoonful

bass

by  DEIVCAVALCANTI

save to print version add songbook text version e-mail correct tuner
chordsukulelecavacokeyboardtabbassdrumsharmonicaflute Guitar Pro
close

there isn't a video lesson for this song

chords

Younger Girl

	  		
  Intro                          1st Verse 
  Q=116 
  4/4 
   Gtr I 
   Q.   E Q.   E   Q.   E Q.   E    Q.   E Q.   E   Q.   E Q.   E 
G|---------------|---------------||---------------|----------------| 
D|--------2----2-|-3----3-5----5-||--------2----2-|-3----3-5----5--| 
A|-5----5--------|---------------||-5----5--------|----------------| 
E|---------------|---------------||---------------|----------------| 


   Q.   E Q.   E   Q.   E Q.   E   Q.   E H      H    H 
G|---------------|---------------|-3----3------|-3---------| 
D|--------2----2-|-3----3-5----5-|--------3----|------3----| 
A|-5----5--------|---------------|-------------|-----------| 
E|---------------|---------------|-------------|-----------| 


                Chorus 
                 Segno $ 
   H    Q  Q     H    H      H    H      H    H 
G|------------||-----------|-----------|-----------| 
D|-5----5-----||-----------|-5----5----|------5----| 
A|------------||-3----3----|-----------|-3---------| 
E|------------||-----------|-----------|-----------| 


   H    H      H    H      H    H      H    H 
G|-----------|-----------|-----------|-----------| 
D|------5----|------5----|-----------|-5---------| 
A|-3---------|-3---------|-5----5----|------5----| 
E|-----------|-----------|-----------|-----------| 


   H    H      H    H      H    H      H    H 
G|-----------|-----------|-----------|-----------| 
D|-5---------|-5----5----|-7----7----|-7----7----| 
A|------5----|-----------|-----------|-----------| 
E|-----------|-----------|-----------|-----------| 


   H    H      H    H      H    H      H    H 
G|-----------|-----------|-----------|-----------| 
D|------7----|------7----|-----------|-5----5----| 
A|-5---------|-5---------|-3----3----|-----------| 
E|-----------|-----------|-----------|-----------| 


     To Coda 
   H    H      H    H      H    H      H    H 
G|-----------|-----------|-----------|-----------| 
D|------5----|------5----|------5----|-----------| 
A|-----------|-----------|-----------|-5----5----| 
E|-3---------|-3---------|-3---------|-----------| 


   H    H      H    H      H    H      H    H 
G|-----------|-----------|-----------|-----------| 
D|-5---------|-5----5----|-7---------|-7---------| 
A|------5----|-----------|------7----|------7----| 
E|-----------|-----------|-----------|-----------| 


   H    H      H    H      H    H      H    H 
G|-----------|-----------|-----------|-----------| 
D|------7----|-----------|-5----5----|------5----| 
A|-5---------|-3----3----|-----------|-3---------| 
E|-----------|-----------|-----------|-----------| 


               2nd Verse 
   H    H       Q.   E Q.   E   Q.   E Q.   E   Q.   E Q.   E 
G|-----------||---------------|---------------|---------------| 
D|------5----||--------2----2-|-3----3-5----5-|--------2----2-| 
A|-3---------||-5----5--------|---------------|-5----5--------| 
E|-----------||---------------|---------------|---------------| 


   Q.   E Q.   E   Q.   E Q.   E   Q.   E Q.   E   Q.   E Q.   E 
G|---------------|---------------|---------------|---------------| 
D|-3----3-5----5-|-3----3-3----3-|-3----3-3----3-|-5----5--------| 
A|---------------|---------------|---------------|--------5----5-| 
E|---------------|---------------|---------------|---------------| 


                 Outro 
  D.S. al Coda    Coda & 
   Q  Q  Q  Q     Q.   E Q.   E   Q.   E Q.   E   Q.   E Q.   E 
G|-------------||---------------|---------------|---------------*| 
D|-5--3--2-----||--------2----2-|-3----3-5----5-|--------2----2-*| 
A|----------5--||-5----5--------|---------------|-5----5--------*| 
E|-------------||---------------|---------------|---------------*| 

 
		  

Full key step upFull key step up
Half key step upHalf key step up
Half key step downHalf key step down
Full key step downFull key step down
hide glossary

See also:

bass Deep Purple - Burn Ver.(2) bass Deep Purple - Speed King bass Deep Purple - Into The Fire bass Deep Purple - Black Night bass Deep Purple - Lady Double Dealer bass Deep Purple - Smoke On The Water
e-chords

Other versions:

bass The Lovin' Spoonful - Younger Girl
auto scroll beats size up size down change color hide chords drawings
tab show chords e-chords YouTube Clip e-chords hide all tabs e-chords go to top tab

share