The Lovin' Spoonful

Nashville Cats

The Lovin' Spoonful

bass

by  SABRJOAO

save to print version add songbook text version e-mail correct tuner
chordsukulelecavacokeyboardtabbassdrumsharmonicaflute Guitar Pro
close

there isn't a video lesson for this song

chords

Nashville Cats

	  		
  Intro 
  Q=169(8=s8) 
  4/4 
   Gtr I 
   Wx3          Q  Q  Q  Q 
G|------------|-------------|| 
D|------------|-------------|| 
A|------------|-3-----0--2--|| 
E|------------|----3--------|| 


 Chorus 
  Segno $ 
   Q  Q  Q  Q    Q  Q  Q  Q    Q  Q  Q  Q    E Q.   H 
G|-------------|-------------|-------------|-------------| 
D|-------------|-------------|-------------|-------------| 
A|-3-----------|-3-----------|-3-----------|-3-3---------| 
E|-------3-----|-------3-----|-------3-----|-------------| 


   Q  Q  Q  Q    Q  Q  Q  Q    Q  Q  Q  Q    E Q.   H 
G|-------------|-------------|-------------|-------------| 
D|-------------|-------------|-------------|-------------| 
A|-3-----------|-3-----------|-3-----------|-3-3---------| 
E|-------3-----|-------3-----|-------3-----|-------------| 


   Q  Q  Q  Q    Q  Q  Q  Q    Q  Q  Q  Q    E Q.   H 
G|-------------|-------------|-------------|-------------| 
D|-------------|-------------|-------------|-------------| 
A|-3-----------|-3-----------|-3-----------|-3-3---------| 
E|-------3-----|-------3-----|-------3-----|-------------| 


   Q  Q  Q  Q    Q  Q  Q  Q    Q  Q  Q  Q    E Q.   H 
G|-------------|-------------|-------------|-------------|| 
D|-------------|-------------|-------------|-------------|| 
A|-3-----------|-3-----------|-3-----------|-3-3---------|| 
E|-------3-----|-------3-----|-------3-----|-------------|| 


  1st & 3rd Verses 
   Q  Q  Q  Q    Q  Q  Q  Q    Q  Q  Q  Q    Q  Q  Q  Q 
G|-------------|-------------|-------------|-------------| 
D|-------------|-------------|-------------|-------------| 
A|-3-----0--2--|-3-----------|-3-----------|-5-----------| 
E|----3--------|-------3-----|-------3-----|-------3-----| 


   Q  Q  Q  Q    Q  Q  Q  Q    Q  Q  Q  Q    Q  Q  Q  Q 
G|-------------|-------------|-------------|-------------| 
D|-------------|-------------|-------------|-------------| 
A|-5-----------|-5-----------|-5-----------|-3-----------| 
E|-------3-----|-------3-----|-------3-----|-------3-----| 


   Q  Q  Q  Q    Q  Q  Q  Q    Q  Q  Q  Q    Q  Q  Q  Q 
G|-------------|-------------|-------------|-------------| 
D|-------------|-------------|-------0--2--|-3-----------| 
A|-3-----------|-3-----------|-3--3--------|-------3-----| 
E|-------3-----|-------3-----|-------------|-------------| 


                                   To Coda 
   Q  Q  Q  Q    Q  Q  Q  Q    Q  Q  Q  Q    Q  Q  Q  Q 
G|-------------|-------------|-------------|-------------|| 
D|-3--2--0--3--|-5-----------|-5--------5--|-------------|| 
A|-------------|-------5-----|-------5-----|-3-----------|| 
E|-------------|-------------|-------------|-------3-----|| 


  2nd Verse 
   Q  Q  Q  Q    Q  Q  Q  Q    Q  Q  Q  Q    Q  Q  Q  Q 
G|-------------|-------------|-------------|-------------| 
D|-------------|-------------|-------------|-------------| 
A|-3-----0--2--|-3-----------|-3-----------|-5-----------| 
E|----3--------|-------3-----|-------3-----|-------3-----| 


   Q  Q  Q  Q    Q  Q  Q  Q    Q  Q  Q  Q    Q  Q  Q  Q 
G|-------------|-------------|-------------|-------------| 
D|-------------|-------------|-------------|-------------| 
A|-5-----------|-5-----------|-5-----------|-3-----------| 
E|-------3-----|-------3-----|-------3-----|-------3-----| 


   Q  Q  Q  Q    Q  Q  Q  Q    Q  Q  Q  Q    Q  Q  Q  Q 
G|-------------|-------------|-------------|-------------| 
D|-------------|-------------|-------------|-------------| 
A|-3-----0--2--|-3-----------|-3-----------|-5-----------| 
E|----3--------|-------3-----|-------3-----|-------3-----| 


                                                      Dal Segno al Coda 
   Q  Q  Q  Q    Q  Q  Q  Q    Q  Q  Q  Q    Q  Q  Q  Q    Q  Q  Q  Q 
G|-------------|-------------|-------------|-------------|-------------|| 
D|-------------|-------------|-------------|-------------|-3--2--0--3--|| 
A|-5-----------|-5-----------|-5--------5--|-3-----------|-------------|| 
E|-------3-----|-------3-----|-------3-----|-------3-----|-------------|| 


                 Chorus 
  Coda & 
   Q  Q  Q  Q      Q  Q  Q  Q    Q  Q  Q  Q    Q  Q  Q  Q 
G|-------------||--------------|-------------|-------------| 
D|-------------||o-------------|-------------|-------------| 
A|-------0--2--||o-3-----------|-3-----------|-3-----------| 
E|-3--3--------||--------3-----|-------3-----|-------3-----| 


                  Outro 
   E Q.   H     4x Q  Q  Q  Q    Q  Q  Q  Q 
G|--------------||-------------|-------------| 
D|-------------o||-------------|-------0--2--| 
A|-3-3---------o||-3-----------|-3-----------| 
E|--------------||-------3-----|-------------| 


   Q  Q  Q  Q    Q  Q  Q  Q    Q  Q  Q  Q    Q  Q  Q  Q 
G|-------------|-------------|-------------|-------------| 
D|-3-----------|-3-----------|-------------|-------------| 
A|-------3-----|-------3--2--|-3-----------|-5-----------| 
E|-------------|-------------|-------3-----|-------3-----| 


   Q  Q  Q  Q    Q  E E +H       +W 
G|-------------|---------------|--------*| 
D|-------------|---------------|--------*| 
A|-3-----------|-3----3-(3)----|-(3)----*| 
E|-------3-----|----3----------|--------*| 

 
		  

Full key step upFull key step up
Half key step upHalf key step up
Half key step downHalf key step down
Full key step downFull key step down
hide glossary

See also:

bass Deep Purple - Burn Ver.(2) bass Deep Purple - Speed King bass Deep Purple - Into The Fire bass Deep Purple - Black Night bass Deep Purple - Lady Double Dealer bass Deep Purple - Smoke On The Water
e-chords

Other versions:

bass The Lovin' Spoonful - Nashville Cats
auto scroll beats size up size down change color hide chords drawings
tab show chords e-chords YouTube Clip e-chords hide all tabs e-chords go to top tab

share