The Lovin' Spoonful

Darling Be Home Soon

The Lovin' Spoonful

bass

by  JOV-CORREA

save to print version add songbook text version e-mail correct tuner
chordsukulelecavacokeyboardtabbassdrumsharmonicaflute Guitar Pro
close

there isn't a video lesson for this song

chords

Darling Be Home Soon

	  		0:30 

G|----------------------------------------------------------------|. 
D|----------------------------------------------------------------|. 
A|3-----------3---3-----------3---3-----------3---3-----------3---|. 
E|----------------------------------------------------------------|. 
                                                                   . x2 
G|----------------------------------------------------------------|. 
D|----------------5-----------5---5-----------5---5-----------5---|. 
A|3-----------3---------------------------------------------------|. 
E|----------------------------------------------------------------|. 

G|--------------------------------| 
D|--------------------------------| 
A|3-------2-----------------------| 
E|----------------5-------5-------| 

G|----------------------------------------------------------------| 
D|5-----------5---5---------------5-----------5---5-----------5---| 
A|----------------------------------------------------------------| 
E|----------------------------------------------------------------| 

0:59 

G|----------------------------------------------------------------| 
D|5-----------5---5-----------5---5-----------5---5-----------5---| x2 
A|----------------------------------------------------------------| 
E|----------------------------------------------------------------| 

G|--------------------------------| 
D|5-----------5---5-----------5---| 
A|--------------------------------| 
E|--------------------------------| 

G|----------------------------------------------------------------| 
D|--------------------------------5-----------5---5-----------5---| x2 
A|3-------2-------------------------------------------------------| 
E|----------------5-------5---------------------------------------| 

G|--------------------------------| 
D|--------------------------------| 
A|3-------2-----------------------| 
E|----------------5-------5-------| 

G|----------------------------------------------------------------| 
D|----------------------------------------------------------------| 
A|5-----------5---5-----------5---5-------5-------5-------5-------| 
E|----------------------------------------------------------------| 

1:29 

G|----------------------------------------------------------------|. 
D|----------------------------------------------------------------|. 
A|3-----------3---3-----------3---3-----------3---3-----------3---|. 
E|----------------------------------------------------------------|. 
                                                                   . x2 
G|----------------------------------------------------------------|. 
D|----------------5-----------5---5-----------5---5-----------5---|. 
A|3-----------3---------------------------------------------------|. 
E|----------------------------------------------------------------|. 

G|--------------------------------| 
D|--------------------------------| 
A|3-------2-----------------------| 
E|----------------5-------5-------| 

G|----------------------------------------------------------------| 
D|5-----------5---5-----------5---5-----------5---5---------------| 
A|----------------------------------------------------------------| 
E|----------------------------------------------------------------| 

1:55 

G|----------------------------------------------------------------| 
D|5-----------5---5-----------5---5-----------5---5-----------5---| x3 
A|----------------------------------------------------------------| 
E|----------------------------------------------------------------| 

G|--------------------------------| 
D|--------------------------------| 
A|3-------2-----------------------| 
E|----------------5-------5-------| 

G|----------------------------------------------------------------| 
D|----------------------------------------------------------------| 
A|5-----------5---5-----------5---5---5---5---5---5---5---5---5---| 
E|----------------------------------------------------------------| 

2:17 

G|----------------------------------------------------------------|. 
D|----------------------------------------------------------------|. 
A|3-----------3---3-----------3---3-----------3---3-----------3---|. 
E|----------------------------------------------------------------|. 
                                                                   . x2 
G|----------------------------------------------------------------|. 
D|----------------5-----------5---5-----------5---5-----------5---|. 
A|3-----------3---------------------------------------------------|. 
E|----------------------------------------------------------------|. 

G|--------------------------------| 
D|--------------------------------| 
A|3-------2-----------------------| 
E|----------------5-------5-------| 

G|----------------------------------------------------------------| 
D|5-----------5---5-----------5---5-----------5---5-----------5---| 
A|----------------------------------------------------------------| 
E|----------------------------------------------------------------| 

2:44 

G|----------------------------------------------------------------| 
D|5-----------5---5-----------5---5-----------5---5-----------5---| x2 
A|----------------------------------------------------------------| 
E|----------------------------------------------------------------| 

G|----------------------------------------------------------------| 
D|5-----------5---5-----------5---5---------------5-----------5---| 
A|----------------------------------------------------------------| 
E|----------------------------------------------------------------| 

G|--------------------------------| 
D|--------------------------------| 
A|3-------2-----------------------| 
E|----------------5-------5-------| 

G|----------------------------------------------------------------| 
D|----------------------------------------------------------------| 
A|5-----------5---5-----------5---5---5---5---5---5---5---5---5---| 
E|----------------------------------------------------------------| 

3:06 

G|----------------------------------------------------------------| 
D|----------------------------------------------------------------| 
A|3-----------3---3-----------3---3-----------3---3-----------3---| 
E|----------------------------------------------------------------| 

G|----------------------------------------------------------------| 
D|----------------5-----------5---5-----------5---5-----------5---| 
A|3-----------3---------------------------------------------------| 
E|----------------------------------------------------------------| 

G|----------------------------------------------------------------| 
D|5---------------------------------------------------------------| 
A|--------3-------3-----------3---3-----------3---3-----------3---| 
E|----------------------------------------------------------------| 

G|----------------------------------------------------------------| 
D|----------------5-----------5---5---------------5---------------| 
A|3-----------3---------------------------------------------------| 
E|----------------------------------------------------------------| 

G|------------------------------------| 
D|--------------------------------5---| 
A|3-------2---------------------------| 
E|----------------5-------5-----------| 
		  

See also:

bass Deep Purple - Burn (ver. 2) bass Deep Purple - Smoke On The Water (ver. 3) bass Deep Purple - Strange kind of woman bass Deep Purple - Into The Fire bass Deep Purple - Burn Ver.(2) bass Deep Purple - Smoke On The Water
e-chords

Other versions:

bass The Lovin' Spoonful - Darling Be Home Soon
auto scroll beats size up size down change color hide chords drawings
tab show chords e-chords YouTube Clip e-chords hide all tabs e-chords go to top tab

share