The Last Shadow Puppets

Gas Dance

The Last Shadow Puppets

bass

by  ROBEPOIEL

save to print version add songbook text version e-mail correct tuner
chordsukulelecavacokeyboardtabbassdrumsharmonicaflute Guitar Pro
close

there isn't a video lesson for this song

chords

Gas Dance

	  		
Intro 
G|----------|-------|----------|-------|--------|------|----------|-------| 
D|----------|-------|----------|-------|--------|------|----------|-------| 
A|-2-3-5----|-----7-|-2-3-5----|-----7-|-2-3-5--|-2--2-|-2-3-5----|-----7-| 
E|------3-0-|-3/8---|------3-0-|-3/8---|------3-|------|------3-0-|--3/8--| 

Verse 0.18 
G|----------|---------|---------|---------|---------|---------|---------|-----------| 
D|----------|---------|---------|---------|---------|---------|---------|-----------| 
A|----------|---------|---------|---------|---------|---------|---------|-----------| 
E|-00-0-00--|-00-0-00-|-00-0-00-|-00-0-00-|-00-0-78-|-88-8-88-|-88-8-88-|-7-5-3-5-0-| 

G|----------|---------|---------|---------|---------|---------|---------|-----------|---------|---------| 
D|----------|---------|---------|---------|---------|---------|---------|-----------|---------|---------| 
A|----------|---------|---------|---------|---------|---------|---------|-----------|---------|---------| 
E|-00-0-00--|-00-0-00-|-00-0-00-|-00-0-00-|-00-0-78-|-88-8-88-|-88-8-88-|-7-5-3-5-0-|-00-0-00-|-00-0-00-| 

Bridge 0.41 
G|----------|-------|----------|-------|--------|------|----------|-------| 
D|----------|-------|----------|-------|--------|------|----------|-------| 
A|-2-3-5----|-----7-|-2-3-5----|-----7-|-2-3-5--|-2--2-|-2-3-5----|-----7-| 
E|------3-0-|-3/8---|------3-0-|-3/8---|------3-|------|------3-0-|--3/8--| 

G|----------|-------|----------|-------|--------|------|----------|-------| 
D|----------|-------|----------|-------|--------|------|----------|-------| 
A|-2-3-5----|-----7-|-2-3-5----|-----7-|-2-3-5--|-2--2-|-2-3-5----|-----7-| 
E|------3-0-|-3/8---|------3-0-|-3/8---|------3-|------|------3-0-|--3/8--| 

Chorus 1.10 
G|-----|-------|-------|-------|-------|----------| 
D|-----|-------|-------|-------|-------|----------| 
A|-3---|-------|---3---|-------|---3---|--3-------| 
E|-----|---0---|-------|---0---|-------|-----1--0-| 

verse 2 1.24 
G|----------|---------|---------|---------|---------|---------|---------|-----------| 
D|----------|---------|---------|---------|---------|---------|---------|-----------| 
A|----------|---------|---------|---------|---------|---------|---------|-----------| 
E|-00-0-00--|-00-0-00-|-00-0-00-|-00-0-00-|-00-0-78-|-88-8-88-|-88-8-88-|-7-5-3-5-0-| 

G|----------|---------|---------|---------|---------|---------|---------|-----------|---------|---------| 
D|----------|---------|---------|---------|---------|---------|---------|-----------|---------|---------| 
A|----------|---------|---------|---------|---------|---------|---------|-----------|---------|---------| 
E|-00-0-00--|-00-0-00-|-00-0-00-|-00-0-00-|-00-0-78-|-88-8-88-|-88-8-88-|-7-5-3-5-0-|-00-0-00-|-00-0-00-| 

Chorus 2 1.50 
G|---------|---------|--------|--------|-------| 
D|---------|---------|--------|--------|-------| 
A|-----7-7-|-----7-7-|-----7-7|--------|-8-----| 
E|-8-7-----|-8-7-----|-8-7----|-8-1-0--|--8-0--| 

Bridge 2.06 
G|------| 
D|------| 
A|-7777-| x15 
E|------|       

G|---------|------|------|------|---------|------|------|------|---------|------|------|------|---------| 
D|---------|------|------|------|---------|------|------|------|---------|------|------|------|---------| 
A|---------|------|------|------|---------|-7777-|-7777-|-7777-|---------|-7777-|-7777-|-7777-|---------| 
E|-7-5-3-5-|-8888-|-8888-|-8888-|-7-5-3-5-|------|------|------|-7-5-3-5-|------|------|------|-7-5-3-5-| 

G|------|------|------|---------|------|------|------|---------|------|------|------|---------| 
D|------|------|------|---------|------|------|------|---------|------|------|------|---------| 
A|------|------|------|---------|-7777-|-7777-|-7777-|-9-7-5-7-|------|------|------|-9-7-5-7-| 
E|-8888-|-8888-|-8888-|-7-5-3-5-|------|------|------|---------|-8888-|-8888-|-8888-|---------| 

G|------|------|-----------| 
D|------|------|-----------| 
A|-7777-|-7777-|-9-7-5-7-2-| 
E|------|------|-----------| 

Outro 2.47 
G|---------|---------|--------|---------|---------|--------|---------------|------|-------| 
D|---------|---------|--------|---------|---------|--------|---------------|------|-------| 
A|-----7-7-|-----7-7-|-----7-7|-----7-7-|-----7-7-|-----7-7|---5-7-2-3-----|-3----|-3-----| 
E|-8-7-----|-8-7-----|-8-7----|-8-7-----|-8-7-----|-8-7----|-8---------1-0-|--1-0-|---1-0-| 



************************************ 

| /   Slide up 

************************************ 
		  

See also:

bass Red Hot Chili Peppers - Scar Tissue bass Ben Harper - With My Own Two Hands bass Red Hot Chili Peppers - Dani california bass Audioslave - Gasoline bass Audioslave - Bring Em Back Alive bass Red Hot Chili Peppers - Otherside (ver. 2)
e-chords

Other versions:

bass The Last Shadow Puppets - Gas Dance
auto scroll beats size up size down change color hide chords drawings
tab show chords e-chords YouTube Clip e-chords hide all tabs e-chords go to top tab

share