The Knocks

Dancing With Myself

The Knocks

bass nolevel nolevel

by  LUCICAMARGO

save to print version add songbook text version e-mail correct tuner
chordsukulelecavacokeyboardtabbassdrumsharmonicaflute Guitar Pro
close

there isn't a video lesson for this song

chords

Dancing With Myself

	  		
Intro 
G|----2--|----------| 
D|-------|----------| x2 
A|-0-----|--0-3-0---| 
E|-----3-|-3-----3-1| 

verse 1 
G|----2--|----------| 
D|-------|----------| 
A|-0-----|--0-3-0---| 
E|-----3-|-3-----3-1| 

G|----2--|--------------------| 
D|-------|--------------------| 
A|-0-----|--0-3-0-------------| 
E|-----3-|-3-----3-1--x-x--x-x| 

G|----2--|----------| 
D|-------|----------| 
A|-0-----|--0-3-0---| 
E|-----3-|-3-----3-1| 

G|----2--|--------------------| 
D|-------|--------------------| 
A|-0-----|--0-3-0-------------| 
E|-----3-|-3-----3-1--x-x--x-x| 

Chorus 
G|---2---0--0-0--------------| 
D|----------------------3-x--| 
A|-0---0-------0-3-0-------0-| 
E|------------------3-1------| 

G|---2---0--0-0--------------| 
D|--------------------------5| 
A|-0---0-------0-3-0------3--| 
E|------------------3-1------| 

G|-------|----------| 
D|-------|----------| x4 
A|-0-----|--0-3-0---| 
E|-----3-|-3-----3-1| 

verse 2 
G|----2--|----------| 
D|-------|----------| 
A|-0-----|--0-3-0---| 
E|-----3-|-3-----3-1| 

G|----2--|----------------| 
D|-------|5-5------------5| 
A|-0-----|---0-3-0--------| 
E|-----3-|--------3-1--3--| 

G|----2--|----------------| 
D|-------|----------------| 
A|-0-----|--0-3-0----5\3-0| 
E|-----3-|-3-----3-1------| 

G|----2--|---------------| 
D|-------|---------------| 
A|-0-----|--0-3-0--------| 
E|-----3-|-3-----3-1--3-3| 

Chorus 
G|---2---0--0-0--------------| 
D|----------------------3-x--| 
A|-0---0-------0-3-0-------0-| 
E|------------------3-1------| 

G|---2---0--0-0--------------| 
D|--------------------------5| 
A|-0---0-------0-3-0------3--| 
E|------------------3-1------| 

G|-------|----------| 
D|-------|----------| x4 
A|-0-----|--0-3-0---| 
E|-----3-|-3-----3-1| 

Chorus 
G|-------|----------| 
D|-------|----------| x4 
A|-0-----|--0-3-0---| 
E|-----3-|-3-----3-1| 

Outro 
G|-------|----------| 
D|-------|----------| x6 
A|-0-----|--0-3-0---| 
E|-----3-|-3-----3-1| 

************************************ 

| x   Dead note 
| \   Slide down 

************************************ 
		  

See also:

bass Deep Purple - When a Blind man cries bass Deep Purple - Smoke On The Waterr bass Deep Purple - Highway Star bass Deep Purple - Smoke On The Water bass Deep Purple - Burn Ver.(2) bass Deep Purple - Fire Ball
e-chords

Other versions:

bass Blink 182 - Dancing with myself bass The Knocks - Dancing With Myself
auto scroll beats size up size down change color hide chords drawings
tab show chords e-chords YouTube Clip e-chords hide all tabs e-chords go to top tab

share with facebook