The Knack

Let Me Out

The Knack

bass

by  BRUNBLAZKOWSKI

save to print version add songbook text version e-mail correct tuner
chordsukulelecavacokeyboardtabbassdrumsharmonicaflute Guitar Pro
close

there isn't a video lesson for this song

chords

Let Me Out

	  		
Intro: 

G |-----------------|-----------------|-----------------|-----------------| 
D |-----------------|-----------------|-----------------|-----------------| 
A |-0---0-0-0-0-0-0-|-0-0-0-0-0-0-0-0-|-2---2-2-2-2-2-2-|-2-2-2-2-2-2-2-2-| 
E |-----------------|-----------------|-----------------|-----------------| 
    1 & 2 & 3 & 4 &   1 & 2 & 3 & 4 &   1 & 2 & 3 & 4 &   1 & 2 & 3 & 4 & 

G |-----------------|-----------------| 
D |-----------------|-----------------| 
A |-3-3-3-3-3-3-3-3-|-r-5-5-5-5-5-5-5-| 
E |-----------------|-----------------| 
    1 & 2 & 3 & 4 &   1 & 2 & 3 & 4 & 


PRE-Verse: 
                              a 
G |-----------------|-------------------|-----------------|-----------------| 
D |-----------------|-------------------|-----------------|-----------------| 
A |-----------------|---5-5-5-3h5-5-5-5-|-----------------|---5-5-5-5-------| 
E |-5-r-5---3-5-r-5-|-r-----------------|-5-r-5---3-5-r-5-|-r---------0-3-4-| 
    1 & 2 & 3 & 4 &   1 & 2 &  3  & 4 &   1 & 2 & 3 & 4 &   1 & 2 & 3 & 4 & 


verse 1: 

G |-----------------|-----------------|-----------------|-----------------| 
D |-----------------|-----------------|-----------------|-----------------| 
A |-----------------|-----------------|-----------------|-----------------| 
E |-5-5-5-5-5-5-5-5-|-5-5-5-5-5-5-5-5-|-5-5-0-0-3-3-4-4-|-5-5-5-5-5-5-5-5-| 
    1 & 2 & 3 & 4 &   1 & 2 & 3 & 4 &   1 & 2 & 3 & 4 &   1 & 2 & 3 & 4 & 

G |-----------------|-----------------|-----------------|-----------------| 
D |-----------------|-----------------|-----------------|-----------------| 
A |-----------------|-----------------|-----------------|---------0-2-4-2-| 
E |-5-5-5-5-5-5-5-3-|-5-5-5-5-5-5-5-5-|-5-5-0-0-3-3-4-4-|-5-5-5-5---------| 
    1 & 2 & 3 & 4 &   1 & 2 & 3 & 4 &   1 & 2 & 3 & 4 &   1 & 2 & 3 & 4 & 


Chorus 1: 

G |-----------------|-----------------|-----------------|-----------------| 
D |-4-4-2---4-4-2---|-----------------|-4-4-2---4-4-2---|---5---5---5-----| 
A |-------4-------4-|-2-2-----2-2---2-|-------4-------4-|-----------------| 
E |-----------------|-----4-2-----4---|-----------------|-3---3-------3-/-| 
    1 & 2 & 3 & 4 &   1 & 2 & 3 & 4 &   1 & 2 & 3 & 4 &   1 & 2 & 3 & 4 & 

G |-----------------|-----------------|-----------------|-----------------| 
D |-----------------|-----------------|-----------------|-----------------| 
A |-----7---7-7-7-7-|-7-7-7-7-7-7-7-7-|-7-7-7-7-7-7-7-7-|-r-5-5-5-5-------| 
E |-0-0-------------|-----------------|-----------------|-----------0-3-4-| 
    1 & 2 & 3 & 4 &   1 & 2 & 3 & 4 &   1 & 2 & 3 & 4 &   1 & 2 & 3 & 4 & 


verse 2: 

G |-----------------|-----------------|-----------------|-----------------| 
D |-----------------|-----------------|-----------------|-----------------| 
A |-----------------|-----------------|-----------------|-----------------| 
E |-5-5-5-5-5-5-5-5-|-5-5-5-5-5-5-5-3-|-5-5-0-0-3-3-4-4-|-5-5-5-5-5-5-5-3-| 
    1 & 2 & 3 & 4 &   1 & 2 & 3 & 4 &   1 & 2 & 3 & 4 &   1 & 2 & 3 & 4 & 

G |-----------------|-----------------|-----------------|-----------------| 
D |-----------------|-----------------|-----------------|-----------------| 
A |-----------------|-----------------|-----------------|---------0-2-4-2-| 
E |-5-5-5-5-5-5-5-5-|-5-5-5-5-5-5-5-3-|-5-5-0-0-3-3-4-4-|-5-5-5-5---------| 
    1 & 2 & 3 & 4 &   1 & 2 & 3 & 4 &   1 & 2 & 3 & 4 &   1 & 2 & 3 & 4 & 


Chorus 2: 

G |-----------------|-----------------|-----------------|-----------------| 
D |-4-4-2---4-4-2---|-----------------|-4-4-2---4-4-2---|---5---5---5-----| 
A |-------4-------4-|-2-2-----2-2---2-|-------4-------4-|-----------------| 
E |-----------------|-----4-2-----4---|-----------------|-3---3-------3-/-| 
    1 & 2 & 3 & 4 &   1 & 2 & 3 & 4 &   1 & 2 & 3 & 4 &   1 & 2 & 3 & 4 & 

            a                       a      a     a     a     a 
G |-------------------|-------------------|------------------------|-----------------| 
D |-------------------|-------------------|------------------------|-----------------| 
A |-----7---5h7-7-7-7-|-7-7-7-7---7-5h7-7-|5h7-7-5h7-7-5h7-7-5h7-7-|-r-5-5-5-5-------| 
E |-0-0---------------|-------------------|------------------------|-----------0-3-4-| 
    1 & 2 &  3  & 4 &   1 & 2 & 3 &  4  &   1  &  2  &  3  &  4  &   1 & 2 & 3 & 4 & 


GUITAR Solo: 

G |-----------------|-----------------|-----------------|-----------------| 
D |-----------------|-----------------|-----------------|-----------------| 
A |-----------------|-----------------|-----------------|-----------------| 
E |-5-5-5-5-5-5-5-5-|-5-5-5-5-5-5-5-3-|-5-5-0-0-3-3-4-4-|-5-5-0-0-3-3-4-4-| 
    1 & 2 & 3 & 4 &   1 & 2 & 3 & 4 &   1 & 2 & 3 & 4 &   1 & 2 & 3 & 4 & 

G |-----------------|-----------------|-----------------|-----------------| 
D |-----------------|-----------------|-----------------|-----------------| 
A |-----------------|-----------------|-----------------|---------0-2-4-2-| 
E |-5-5-5-5-5-5-5-5-|-5-5-5-5-5-5-5-3-|-5-5-0-0-3-3-4-4-|-5-5-5-5---------| 
    1 & 2 & 3 & 4 &   1 & 2 & 3 & 4 &   1 & 2 & 3 & 4 &   1 & 2 & 3 & 4 & 

G |-----------------|-----------------|-----------------|-----------------| 
D |-4-4-2---4-4-2---|-----------------|-4-4-2---4-4-2---|---5---5---5-----| 
A |-------4-------4-|-2-2-----2-2---2-|-------4-------4-|-----------------| 
E |-----------------|-----4-2-----4---|-----------------|-3---3-------3-/-| 
    1 & 2 & 3 & 4 &   1 & 2 & 3 & 4 &   1 & 2 & 3 & 4 &   1 & 2 & 3 & 4 & 

        a 
G |-------------------|-----------------|-----------------|-----------------| 
D |-------------------|-----------------|-----------------|-----------------| 
A |-----5h7---7-7-7-7-|-7-7-7-7-7-7-7-7-|-7-7-7-7-7-7-7-7-|-r---------------| 
E |-0-----------------|-----------------|-----------------|---5-5-5-5-0-3-4-| 
    1 &  2  & 3 & 4 &   1 & 2 & 3 & 4 &   1 & 2 & 3 & 4 &   1 & 2 & 3 & 4 & 


verse 3: 

G |-----------------|-----------------|-----------------|-----------------| 
D |-----------------|-----------------|-----------------|-----------------| 
A |-----------------|-----------------|-----------------|-----------------| 
E |-5-5-5-5-5-5-5-5-|-5-5-5-5-5-5-5-3-|-5-5-0-0-3-3-4-4-|-5-5-0-0-3-3-4-4-| 
    1 & 2 & 3 & 4 &   1 & 2 & 3 & 4 &   1 & 2 & 3 & 4 &   1 & 2 & 3 & 4 & 

G |-----------------|-----------------|-----------------|-----------------| 
D |-----------------|-----------------|-----------------|-----------------| 
A |-----------------|-----------------|-----------------|---------0-2-4-2-| 
E |-5-5-5-5-5-5-5-5-|-5-5-5-5-5-5-5-3-|-5-5-0-0-3-3-4-4-|-5-5-5-5---------| 
    1 & 2 & 3 & 4 &   1 & 2 & 3 & 4 &   1 & 2 & 3 & 4 &   1 & 2 & 3 & 4 & 


Chorus 3: 

G |-----------------|-----------------|-----------------|-----------------| 
D |-4-4-2---4-4-2---|-----------------|-4-4-2---4-4-2---|---5---5---5-----| 
A |-------4-------4-|-2-2-----2-2---2-|-------4-------4-|-----------------| 
E |-----------------|-----4-2-----4---|-----------------|-3---3-------3-/-| 
    1 & 2 & 3 & 4 &   1 & 2 & 3 & 4 &   1 & 2 & 3 & 4 &   1 & 2 & 3 & 4 & 

                        a     a         a         a 
G |-----------------|-----------------------|---------------------|-----------------| 
D |-----------------|-----------------------|---------------------|-----------------| 
A |-----7---7-7-7-7-|-7-5h7-7-5h7-7-7-7-5h7-|-7-7-5h7-7-7-5h7-7-7-|-r-5-5-5-5-------| 
E |-0-0-------------|-----------------------|---------------------|-----------0-3-4-| 
    1 & 2 & 3 & 4 &   1  &  2  &  3 & 4  &    1 &  2  & 3  &  4 &   1 & 2 & 3 & 4 & 


JAM: 

G |-----------------|-----------------|-----------------|-----------------| 
D |-----------------|-----------------|-----------------|-----------------| 
A |-----------------|-----------------|-----------------|-----------------| 
E |-5-5-5-5-5-5-5-5-|-5-5-5-5-5-5-5-3-|-5-5-0-0-3-3-4-4-|-5-5-0-0-3-3-4-4-| 
    1 & 2 & 3 & 4 &   1 & 2 & 3 & 4 &   1 & 2 & 3 & 4 &   1 & 2 & 3 & 4 & 

G |-----------------|-----------------|-----------------|-----------------| 
D |-----------------|-----------------|-----------------|-----------------| 
A |-----------------|-----------------|-----------------|-----------------| 
E |-5-5-5-5-5-5-5-3-|-5-5-5-5-5-5-5-3-|-5-5-0-0-3-3-4-4-|-5-5-0-0-3-3-4-4-| 
    1 & 2 & 3 & 4 &   1 & 2 & 3 & 4 &   1 & 2 & 3 & 4 &   1 & 2 & 3 & 4 & 

                              a 
G |-----------------|-------------------|-----------------|-----------------| 
D |-----------------|-------------------|-----------------|-----------------| 
A |-----------------|-------------------|-----------------|-----------------| 
E |-5-5-5-5-5-5-5-3-|-5-5-5-5-3h5-5-5-3-|-5-5-0-0-3-3-4-4-|-5-5-0-0-3-3-4-4-| 
    1 & 2 & 3 & 4 &   1 & 2 &  3  & 4 &   1 & 2 & 3 & 4 &   1 & 2 & 3 & 4 & 

G |-----------------|-------------------|-------------------------|-------11-11-12-12-13-14-| 
D |-----------------|-------------------|-------11-11-12-12-13-13-|-14-14-------------------| 
A |-------4---5---6-|(6)7---9---10-r-10/|-12-12-------------------|-------------------------| 
E |-5-5-5-----------|-------------------|-------------------------|-------------------------| 
    1 & 2 & 3 & 4 &   1 & 2 & 3 &  4 &    1  &  2  &  3  &  4  &    1  &  2  &  3  &  4  & 


OUTRO: 

G |-----------------|-----------------|-----------------|-----------------| 
D |-----------------|-----------------|-----------------|-----------------| 
A |-0-0-0-0-0-0-0-0-|-0-0-0-0-0-0-0-0-|-2-2-2-2-2-2-2-2-|-2-2-2-2-2-2-2-2-| 
E |-----------------|-----------------|-----------------|-----------------| 
    1 & 2 & 3 & 4 &   1 & 2 & 3 & 4 &   1 & 2 & 3 & 4 &   1 & 2 & 3 & 4 & 

                                        (Let ring) 
G |-----------------|-----------------|-----------------| 
D |-----------------|-----------------|-----------------| 
A |-3-3-3-3-3-3-3-3-|-5-5-5-5-5-5-5-5-|-0---------------| 
E |-----------------|-----------------|-----------------| 
    1 & 2 & 3 & 4 &   1 & 2 & 3 & 4 &   1 & 2 & 3 & 4 & 

LEGEND: 
r = rest 
h = hammer on 
/ = slide up 
() = sustained note 
a = acciaccatura (appears above bar) 
		  

See also:

bass Eiffel 65 - Im Blue da Ba Dee bass Aerosmith - Cryin' bass Alan Parsons Project - Eye In The Sky bass Guns N' Roses - Welcome To The Jungle (ver. 2) bass Live - Dolphin“s Cry bass Elvis Presley - Hounddog
e-chords

Other versions:

bass The Knack - Let Me Out
auto scroll beats size up size down change color hide chords drawings
tab show chords e-chords YouTube Clip e-chords hide all tabs e-chords go to top tab

share