The Killers

Somebody Told Me

The Killers

bass

by  FALLING UP

save to print version add songbook text version e-mail correct tuner
chordsukulelecavacokeyboardtabbassdrumsharmonicaflute Guitar Pro
close

there isn't a video lesson for this song

chords

Somebody Told Me

Year: 2004 - Album: Hot Fuss: Deluxe Tour Edition

	  		Intro (hold) 
  |-----------------| 
  |-----------------| 
  |1----------------| 
  |-----------------| 
 
verse 
  |--------------------------------------------------------------------------| 
  |--------------------------------------------------------------------------| 
  |1(x32)--------1(x32)---------------1(x32)-------------1(x16)--------------| 
  |-------2(x16)--------2(x16)-4(x16)--------2(x8)-4(x8)--------2(x16)-4(x10-| 
 
  -----------------------------one measure------rest------------------------ 
  Chorus: 
 
  |------------------------------------------| 
  |------4(x8)-------3(x8)-------4(x8)-------| 
  |1(x8)-------------------1(x8)-------------| 
  |------------4(x8)-------------------4(x8)-| 
 
verse 2: 
 
  |-------------------------------------------------------------------------| 
  |-------------------------------------------------------------------------| 
  |1(x32)--------1(x32)-------------1(x16)----------------------------------| 
  |-------2(x16)--------2(x8)-4(x8)--------2(x16)-4(x10)--------------------| 
 
Go back to Chorus: 
 
 
Interlude: (x4) 
 
  |--------------------------------------| 
  |--------------------------------------| 
  |1-------------------------------------| 
  |-------------4------------2-----------| 
 
Do Chorus again (x6) 
 
last Chorus: (x2) 
 
  |3(x8)-11(x8)-1(x8)-10(x8)-------------| 
  |--------------------------------------| 
  |--------------------------------------| 
  |--------------------------------------| 
 
Ends on: 
 
  |--3-3------| 
  |-----------| 
  |-----------| 
  |-----------| 

		  

See also:

bass 4 Non Blondes - Pleasantly blue bass Foo Fighters - All My Life bass Guns N' Roses - November Rain bass Foo Fighters - Ever Long bass The Killers - Somebody told me (ver. 2) bass Creed - Don Stop Dancing
e-chords

Other versions:

bass The Killers - Somebody Told Me bass The Killers - Somebody told me (ver. 2)
auto scroll beats size up size down change color hide chords drawings
tab show chords e-chords YouTube Clip e-chords hide all tabs e-chords go to top tab

share