The Haunted

Brute Force

The Haunted

bass

by  EDSOOLIVEIRA

save to print version add songbook text version e-mail correct tuner
chordsukulelecavacokeyboardtabbassdrumsharmonicaflute Guitar Pro
close

there isn't a video lesson for this song

chords

Brute Force

	  		
F|-------|----------------------------|----------------------------| 
C|-------|----------------------------|----------------------------| 
G|-------|--------------8s-7----------|--5s-7----------------------| 
D|-------|--6--0--0--0--------0--0----|--------0--0--6s-7s-6--0----| 


F|----------------------------|----------------------------| 
C|----------------------------|----------------------------| 
G|--------------8s-7----------|--5s-7----------------------| 
D|--6--0--0--0--------0--0----|--------0--0--6s-7s-6--0----| 


F|----------------------------|----------------------------| 
C|----------------------------|----------------------------| 
G|--------------5--5----------|--4--4--5--5--4--4--1--1----| 
D|--3--3--3--3--------6--6----|----------------------------| 


F|----------------------------|----------------------------| 
C|----------------------------|----------------------------| 
G|--------------5--5----------|--4--4--5--5--4--4----------| 
D|--3--3--3--3--------6--6----|--------------------6--6----| 


F|----------------------------|----------------------------| 
C|----------------------------|----------------------------| 
G|--------------8s-7----------|--5s-7----------------------| 
D|--6--0--0--0--------0--0----|--------0--0--6s-7s-6--0----| 


F|----------------------------|----------------------------| 
C|----------------------------|----------------------------| 
G|--------------8s-7----------|--5s-7----------------------| 
D|--6--0--0--0--------0--0----|--------0--0--6s-7s-6--0----| 


F|----------------------------|----------------------------| 
C|----------------------------|----------------------------| 
G|--------------5--5----------|--4--4--5--5--4--4----------| 
D|--3--3--3--3--------6--6----|--------------------6--6----| 


F|----------------------------|----------------------------| 
C|----------------------------|----------------------------| 
G|--------------5--5----------|--4--4--4--4--4--4--4--4----| 
D|--3--3--3--3--------6--6----|----------------------------| 


F|----------------------------|----------------------------| 
C|----------------------------|----------------------------| 
G|----------------------------|----------------------------| 
D|--6--6--0--0--0--0--6--6----|--7--7--6--6--4--4--6--6----| 


F|----------------------------|----------------------------| 
C|----------------------------|----------------------------| 
G|----------------------------|----------------------------| 
D|--6--6--0--0--0--0--6--6----|--7--7--6--6--4--4--6--6----| 


F|----------------------------|----------------------------| 
C|----------------------------|----------------------------| 
G|--------------5--5----------|--4--4--5--5--4--4----------| 
D|--3--3--3--3--------6--6----|--------------------6--6----| 


F|----------------------------|----------------------------| 
C|----------------------------|----------------------------| 
G|--------------5--5----------|--4--4--5--5--4--4----------| 
D|--3--3--3--3--------6--6----|--------------------6--6----| 


F|----------------------------|----------------------------| 
C|----------------------------|----------------------------| 
G|----------------------------|----------------------------| 
D|--6--6--0--0--0--0--6--6----|--7--7--6--6--4--4--6--6----| 


F|----------------------------|----------------------------| 
C|----------------------------|----------------------------| 
G|----------------------------|----------------------------| 
D|--6--6--0--0--0--0--6--6----|--7--7--6--6--4--4--6--6----| 


F|----------------------------|----------------------------| 
C|----------------------------|----------------------------| 
G|--------------5--5----------|--4--4--5--5--4--4----------| 
D|--3--3--3--3--------6--6----|--------------------6--6----| 


F|----------------------------|----------------------------|----------| 
C|----------------------------|----------------------------|----------| 
G|--------------5--5----------|--5--4-----4-----4-----4----|-----7s---| 
D|--3--3--3--3--------6--6----|----------------------------|--0-------| 


F|----------------------------------------------------| 
C|----------------------------------------------------| 
G|--------------2-----------5-------------------------| 
D|--0--0--0-----------------------------0-------------| 


F|----------------------------|----------------------------|----------| 
C|----------------------------|----------------------------|----------| 
G|----------------------------|----------------------------|--7s------| 
D|--3-----5-----6--6--6--6----|--6--6--6--6--6--6--6--6----|-----0----| 


F|----------------|----------------------------------------| 
C|----------------|----------------------------------------| 
G|-----2--5-------|----------------------------------------| 
D|-----------0----|--3--------5--------6--6--6--6--6--6----| 


F|----------------------------------------|----------| 
C|----------------------------------------|----------| 
G|----------------------------------------|-----7s---| 
D|--6--6--6--6--6--6--6--6--6--6--6--6----|--0-------| 


F|----------------------------------------------------| 
C|----------------------------------------------------| 
G|--------------2-----------5-------------------------| 
D|--0--0--0-----------------------------0-------------| 


F|----------------------------|----------------------------|----------| 
C|----------------------------|----------------------------|----------| 
G|----------------------------|----------------------------|--7s------| 
D|--3-----5-----6--6--6--6----|--6--6--6--6--6--6--6--6----|-----0----| 


F|----------------|----------------------------|-------| 
C|----------------|----------------------------|-------| 
G|-----2--5-------|----------------------------|-------| 
D|-----------0----|--3-----5-----6-------------|-------| 


F|----------------------------|----------------------------| 
C|----------------------------|----------------------------| 
G|----------------------------|----------------------------| 
D|--6--6--6--6--6--6--6--6----|--6--6--6--6--6--6--6--6----| 


F|----------------------------|----------------------------| 
C|----------------------------|----------------------------| 
G|----------------------------|----------------------------| 
D|--5--5--5--5--5--5--5--5----|--5--5--5--5--5--5--5--5----| 


F|----------------------------|----------------------------| 
C|----------------------------|----------------------------| 
G|----------------------------|----------------------------| 
D|--6--6--6--6--6--6--6--6----|--8--8--8--8--9--9--9--9----| 


F|----------------------------|----------------------------| 
C|----------------------------|----------------------------| 
G|----------------------------|----------------------------| 
D|--0--0--0--0--0--0--0--0----|--0--0--0--0--0--0--0--0----| 


F|----------------------------|----------------------------| 
C|----------------------------|----------------------------| 
G|----------------------------|----------------------------| 
D|--6--6--6--6--6--6--6--6----|--6--6--6--6--6--6--6--6----| 


F|----------------------------|----------------------------| 
C|----------------------------|----------------------------| 
G|----------------------------|----------------------------| 
D|--5--5--5--5--5--5--5--5----|--5--5--5--5--5--5--5--5----| 


F|----------------------------|----------------------------| 
C|----------------------------|----------------------------| 
G|----------------------------|----------------------------| 
D|--6--6--6--6--6--6--6--6----|--8--8--8--8--9--9--9--9----| 


F|----------------------------|----------------------------|----------| 
C|----------------------------|----------------------------|----------| 
G|----------------------------|--------------7s------------|-----7s---| 
D|--0--0--0--0--0--0--0--0----|--0--0--0--0----------------|--0-------| 


F|----------------------------------------------------| 
C|----------------------------------------------------| 
G|--------------2-----------5-------------------------| 
D|--0--0--0-----------------------------0-------------| 


F|----------------------------|----------------------------|----------| 
C|----------------------------|----------------------------|----------| 
G|----------------------------|----------------------------|--7s------| 
D|--3-----5-----6--6--6--6----|--6--6--6--6--6--6--6--6----|-----0----| 


F|----------------|----------------------------------------| 
C|----------------|----------------------------------------| 
G|-----2--5-------|----------------------------------------| 
D|-----------0----|--3--------5--------6--6--6--6--6--6----| 


F|----------------------------------------|----------| 
C|----------------------------------------|----------| 
G|----------------------------------------|-----7s---| 
D|--6--6--6--6--6--6--6--6--6--6--6--6----|--0-------| 


F|----------------------------------------------------| 
C|----------------------------------------------------| 
G|--------------2-----------5-------------------------| 
D|--0--0--0-----------------------------0-------------| 


F|----------------------------|----------------------------|----------| 
C|----------------------------|----------------------------|----------| 
G|----------------------------|----------------------------|--7s------| 
D|--3-----5-----6--6--6--6----|--6--6--6--6--6--6--6--6----|-----0L---| 


F|----------------|----------|-------|-------| 
C|----------------|----------|-------|-------| 
G|-----2--5-------|----------|-------|-------| 
D|--0--------0----|--3--5----|-------|-------| 


F|----------------------------------------| 
C|----------------------------------------| 
G|----------------------------------------| 
D|--0--------0--------0--0--0--0----------| 


F|----------------------------------------| 
C|----------------------------------------| 
G|----------------------------------------| 
D|--0--0--0--0--------0--------0--0--0----| 


F|----------------------------------------| 
C|----------------------------------------| 
G|----------------------------------------| 
D|--0--------0--------0--0--0--0----------| 


F|----------------------------------------| 
C|----------------------------------------| 
G|----------------------------------------| 
D|--0--0--0--0--------1L-------1s---------| 


F|----------------------------------------| 
C|----------------------------------------| 
G|----------------------------------------| 
D|--7s-------6--------0--0--0--0----------| 


F|----------------------------------------| 
C|----------------------------------------| 
G|----------------------------------------| 
D|--0--0--0--0--------0--------0--0--0----| 


F|----------------------------------------| 
C|----------------------------------------| 
G|----------------------------------------| 
D|--0--------0--------0--0--0--0----------| 


F|----------------------------------------| 
C|----------------------------------------| 
G|----------------------------------------| 
D|--0--0--0--0--------0--------0--0--0----| 


F|----------------------------------------| 
C|----------------------------------------| 
G|----------------------------------------| 
D|--0--------0--------0--0--0--0----------| 


F|----------------------------------------| 
C|----------------------------------------| 
G|----------------------------------------| 
D|--0--0--0--0--------0--------0--0--0----| 


F|----------------------------------------|----------------| 
C|----------------------------------------|----------------| 
G|----------------------------------------|----------------| 
D|--0--------0--------0--0--0--6----------|--7--6--3--6----| 


F|----------------------------------------| 
C|----------------------------------------| 
G|----------------------------------------| 
D|--7s-------6--------0--0--0--0----------| 


F|----------------------------------------| 
C|----------------------------------------| 
G|----------------------------------------| 
D|--0--0--0--0--------0--------0--0--0----| 


F|----------------------------------------| 
C|----------------------------------------| 
G|----------------------------------------| 
D|--0--------0--------0--0--0--0----------| 


F|----------------------------------------| 
C|----------------------------------------| 
G|----------------------------------------| 
D|--0--0--0--0--------0--------0--0--0----| 


F|----------------------------------------| 
C|----------------------------------------| 
G|----------------------------------------| 
D|--0--------0--------0--0--0--0----------| 


F|----------------------------------------| 
C|----------------------------------------| 
G|----------------------------------------| 
D|--0--0--0--0--------0--------0--0--0----| 


F|----------------------------------------|----------------| 
C|----------------------------------------|----------------| 
G|----------------------------------------|----------------| 
D|--0--------0--------0--0--0--3----------|--4--0--3--1----| 


F|----------------------------------------| 
C|----------------------------------------| 
G|----------------------------------------| 
D|--7s-------6--------0--0--0--0----------| 


F|----------------------------------------| 
C|----------------------------------------| 
G|----------------------------------------| 
D|--0--0--0--0--------0--------0--0--0----| 


F|----------------------------------------| 
C|----------------------------------------| 
G|----------------------------------------| 
D|--0--------0--------0--0--0--0----------| 


F|----------------------------------------| 
C|----------------------------------------| 
G|----------------------------------------| 
D|--0--0--0--0--------0--------0--0--0----| 


F|----------------------------------------| 
C|----------------------------------------| 
G|----------------------------------------| 
D|--0--------0--------0--0--0--0----------| 


F|----------------------------------------| 
C|----------------------------------------| 
G|----------------------------------------| 
D|--0--0--0--0--------0--------0--0--0----| 


F|----------------------------------------|----------------| 
C|----------------------------------------|----------------| 
G|----------------------------------------|----------------| 
D|--0--------0--------0--0--0--6----------|--7--6--3--6----| 


F|----------------------------------------| 
C|----------------------------------------| 
G|----------------------------------------| 
D|--7s-------6--------0--0--0--0----------| 


F|----------------------------------------| 
C|----------------------------------------| 
G|----------------------------------------| 
D|--0--0--0--0--------0--------0--0--0----| 


F|----------------------------------------| 
C|----------------------------------------| 
G|----------------------------------------| 
D|--0--------0--------0--0--0--0----------| 


F|----------------------------------------| 
C|----------------------------------------| 
G|----------------------------------------| 
D|--0--0--0--0--------0--------0--0--0----| 


F|----------------------------------------| 
C|----------------------------------------| 
G|----------------------------------------| 
D|--0--------0--------0--0--0--0----------| 


F|----------------------------------------| 
C|----------------------------------------| 
G|----------------------------------------| 
D|--0--0--0--0--------0--------0--0--0----| 


F|----------------------------------------|----------------|----------------| 
C|----------------------------------------|----------------|----------------| 
G|----------------------------------------|----------------|----------------| 
D|--0--------0--------0--0--0--3----------|--4--0--3--1----|--5--5--5--5----| 


F|----------------|----------------|----------------|----------------| 
C|----------------|----------------|----------------|----------------| 
G|----------------|----------------|----------------|----------------| 
D|--5--5--5--5----|--6--5--3--5----|--6--5--3--5----|--2--2--2--2----| 


F|----------------|----------------|----------------|----------------| 
C|----------------|----------------|----------------|----------------| 
G|----------------|----------------|----------------|----------------| 
D|--2--2--2--0----|--2--0--3--0----|--0--0--2--3----|--5--5--5--5----| 


F|----------------|----------------|----------------|----------------| 
C|----------------|----------------|----------------|----------------| 
G|----------------|----------------|----------------|----------------| 
D|--5--5--5--5----|--6--5--3--5----|--6--5--3--5----|--2--2--2--2----| 


F|----------------|----------------|----------------|----------------------------| 
C|----------------|----------------|----------------|----------------------------| 
G|----------------|----------------|----------------|----------------------------| 
D|--2--2--2--0----|--2--0--3--0----|--0--0--2--3----|--6--6--6--6--6--6--6--6----| 


F|----------------------------|----------------------------| 
C|----------------------------|----------------------------| 
G|----------------------------|----------------------------| 
D|--6--6--6--6--6--6--6--6----|--5--5--5--5--5--5--5--5----| 


F|----------------------------|----------------------------| 
C|----------------------------|----------------------------| 
G|----------------------------|----------------------------| 
D|--5--5--5--5--5--5--5--5----|--6--6--6--6--6--6--6--6----| 


F|----------------------------|----------------------------| 
C|----------------------------|----------------------------| 
G|----------------------------|----------------------------| 
D|--8--8--8--8--9--9--9--9----|--0--0--0--0--0--0--0--0----| 


F|----------------------------|----------------------------| 
C|----------------------------|----------------------------| 
G|----------------------------|----------------------------| 
D|--0--0--0--0--0--0--0--0----|--6--6--6--6--6--6--6--6----| 


F|----------------------------|----------------------------| 
C|----------------------------|----------------------------| 
G|----------------------------|----------------------------| 
D|--6--6--6--6--6--6--6--6----|--5--5--5--5--5--5--5--5----| 


F|----------------------------|----------------------------| 
C|----------------------------|----------------------------| 
G|----------------------------|----------------------------| 
D|--5--5--5--5--5--5--5--5----|--6--6--6--6--6--6--6--6----| 


F|----------------------------|----------------------------| 
C|----------------------------|----------------------------| 
G|----------------------------|----------------------------| 
D|--8--8--8--8--9--9--9--9----|--0--0--0--0--0--0--0--0----| 


F|----------------------------|----------| 
C|----------------------------|----------| 
G|--------------7s------------|-----7s---| 
D|--0--0--0--0----------------|--0-------| 


F|----------------------------------------------------| 
C|----------------------------------------------------| 
G|--------------2-----------5-------------------------| 
D|--0--0--0-----------------------------0-------------| 


F|----------------------------|----------------------------|----------| 
C|----------------------------|----------------------------|----------| 
G|----------------------------|----------------------------|--7s------| 
D|--3-----5-----6--6--6--6----|--6--6--6--6--6--6--6--6----|-----0----| 


F|----------------|----------------------------------------| 
C|----------------|----------------------------------------| 
G|-----2--5-------|----------------------------------------| 
D|-----------0----|--3--------5--------6--6--6--6--6--6----| 


F|----------------------------------------|----------| 
C|----------------------------------------|----------| 
G|----------------------------------------|-----7s---| 
D|--6--6--6--6--6--6--6--6--6--6--6--6----|--0-------| 


F|----------------------------------------------------| 
C|----------------------------------------------------| 
G|--------------2-----------5-------------------------| 
D|--0--0--0-----------------------------0-------------| 


F|----------------------------|----------------------------|----------| 
C|----------------------------|----------------------------|----------| 
G|----------------------------|----------------------------|--7s------| 
D|--3-----5-----6--6--6--6----|--6--6--6--6--6--6--6--6----|-----0----| 


F|----------------|----------|-------|-------|----------------|| 
C|----------------|----------|-------|-------|----------------|| 
G|-----2--5-------|----------|-------|-------|----------------|| 
D|-----------0----|--3--5----|--0----|-------|----------------|| 

************************************** 

s - slide 

************************************** 
		  

See also:

bass Deep Purple - Burn (ver. 2) bass Deep Purple - Smoke On The Water (ver. 3) bass Deep Purple - Strange kind of woman bass Deep Purple - Into The Fire bass Deep Purple - Burn Ver.(2) bass Deep Purple - Smoke On The Water
e-chords

Other versions:

bass The Haunted - Brute Force
auto scroll beats size up size down change color hide chords drawings
tab show chords e-chords YouTube Clip e-chords hide all tabs e-chords go to top tab

share