The Gladiators

Pocket money

The Gladiators

bass

by  PAULANTUNES

save to print version add songbook text version e-mail correct tuner
chordsukulelecavacokeyboardtabbassdrumsharmonicaflute Guitar Pro
close

there isn't a video lesson for this song

chords

Pocket money

	  		
Chorus 
G|---------------------------------| 
D|---------------------------------| 
A|-3---3-3---3---3-1-----1-----1---| 
E|-------------3-----------1-1-----| 

 Bridge 
G|-----------------0-----0-----0---|---------------------------------| 
D|-------------1-3---------0-0-----|-1---1-1---1---1-0---------------|  x2 
A|-3---3-3---3---------------------|-------------1-------------------| 
E|---------------------------------|-----------------------1-1-1-1---| 

 Verse 
G|-------------0-3-----------------| 
D|-1-----1-1-1-----------------0---| 
A|-----------------1-----1-1-1-----| 
E|---------------------------------| 
		  

See also:

bass Temptations - My girl bass The Gladiators - Hello Carol bass UB 40 - Red red wine bass Abyssinians - The Good Lord bass Abyssinians - Peculiar Number bass Temptations - Stand By Me
e-chords

Other versions:

bass The Gladiators - Pocket money
auto scroll beats size up size down change color hide chords drawings
tab show chords e-chords YouTube Clip e-chords hide all tabs e-chords go to top tab

share