The Giles Brothers

Don't Ever Change

The Giles Brothers

bass

by  BOMBAXXX

save to print version add songbook text version e-mail correct tuner
chordsukulelecavacokeyboardtabbassdrumsharmonicaflute Guitar Pro
close

there isn't a video lesson for this song

chords

Don't Ever Change

	  		

G|------------------------| 
D|3-------3-------2-------| 
A|------------------------| 
E|------------------------| 

G|------------------------2---------------------------------------| 
D|0-----------3-------------------------------0-----------3-------| 
A|--------------------------------1-------------------------------| 
E|----------------------------------------------------------------| 

G|----------------------------------------------------------------| 
D|----------------------------------------3-------3-------2-------| 
A|3-----------------------2-------3-------------------------------| 
E|------------3---------------------------------------------------| 

G|------------------------2---------------------------------------| 
D|0-----------3-------------------------------0-----------3-------| 
A|--------------------------------1-------------------------------| 
E|----------------------------------------------------------------| 

G|----------------------------------------------------------------| 
D|----------------------------------------------------------------| 
A|3-----------------------2-------3-----------------------4-------| 
E|------------3---------------------------------------------------| 

0:12 

G|------------------------2---------------------------------------| 
D|0-----------3-------------------------------0-----------3-------| 
A|--------------------------------1-------------------------------| 
E|----------------------------------------------------------------| 

G|----------------------------------------------------------------| 
D|------------5-----------2-------------------5-----------2-------| 
A|3-------------------------------3-------------------------------| 
E|----------------------------------------------------------------| 

G|----------------------------------------------------------------| 
D|----------------------------------------------------------------| 
A|------------0-----------3-------------------0-------1---2-------| 
E|1-------------------------------1-------------------------------| 

G|----------------------------------------------------------------| 
D|------------2-----------5-------------------5-----------2-------| 
A|3-------------------------------3-------------------------------| 
E|----------------------------------------------------------------| 

0:22 

G|----------------------------------------------------------------| 
D|--------------------------------------------------------2-------| 
A|------------0-----------3-------0-----------4-------------------| 
E|1---------------------------------------------------------------| 

G|----------------------------------------------------------------| 
D|------------0-----------3-------------------3-------------------| 
A|1-------------------------------1-----------------------4-------| 
E|----------------------------------------------------------------| 

G|----------------------------------------------------------------| 
D|----------------------------------------------------------------| 
A|------------0-----------1-------------------0-------1---2-------| 
E|1-------------------------------1-------------------------------| 

G|----------------------------------------------------------------| 
D|------------5-----------2---------------------------------------| 
A|3-------------------------------3-----------------------4-------| 
E|----------------------------------------------------------------| 

0:33 

G|------------------------2---------------------------------------| 
D|0-----------3-------------------------------0-----------3-------| 
A|--------------------------------1-------------------------------| 
E|----------------------------------------------------------------| 

G|----------------------------------------------------------------| 
D|------------5-----------2-------------------5-----------2-------| 
A|1-------------------------------3-------------------------------| 
E|----------------------------------------------------------------| 

G|----------------------------------------------------------------| 
D|----------------------------------------------------------------| 
A|------------0-----------3-------------------0-------1---2-------| 
E|1-------------------------------1-------------------------------| 

G|----------------------------------------------------------------| 
D|------------2-----------5-------------------5-----------2-------| 
A|3-------------------------------3-------------------------------| 
E|----------------------------------------------------------------| 

0:44 

G|----------------------------------------------------------------| 
D|--------------------------------------------------------2-------| 
A|------------0-----------3-------0-----------4-------------------| 
E|1---------------------------------------------------------------| 

G|----------------------------------------------------------------| 
D|------------0-----------3-------------------3-------------------| 
A|1-------------------------------1-----------------------4-------| 
E|----------------------------------------------------------------| 

G|----------------------------------------------------------------| 
D|----------------------------------------------------------------| 
A|------------0-----------1-------3-----------1-------0-----------| 
E|1-------------------------------------------------------3-------| 

G|----------------------------------------------------------------| 
D|----------------------------------------------------------------| 
A|------------0-----------3-------------------------------0---0---| 
E|1-----------------------------------1---1---1---3---3-----------| 

0:55 

G|----------------------------------------------------------------| 
D|------------0-------3---0---3---------------0-------3---0---3---| 
A|1-------------------------------1-------------------------------| 
E|----------------------------------------------------------------| 

G|----------------------------------------------------------------| 
D|----------------------------------------------------------------| 
A|------------0-------3---0---3---------------0-------3---0---3---| 
E|1-------------------------------1-------------------------------| 

G|----------------------------------------------------------------| 
D|----------------------------------------------------------------| 
A|------------2-------5---2---5---------------2-------5---2---5---| 
E|3-------------------------------3-------------------------------| 

G|----------------------------------------------------------------| 
D|------------2-------5---2---5---------------------------2---2---| 
A|3-----------------------------------3---3---3---5---5-----------| 
E|----------------------------------------------------------------| 

1:06 

G|------------2-------5---2---5-----------------------2-------2---| 
D|3-------------------------------0-----------3-----------3-------| 
A|----------------------------------------------------------------| 
E|----------------------------------------------------------------| 

G|----------------------------------------------------------------| 
D|------------0-------3---0---3-----------------------3-------3---| 
A|1-------------------------------1-----------4-----------4-------| 
E|----------------------------------------------------------------| 

G|----------------------------------------------------------------| 
D|----------------------------------------------------------------| 
A|------------0-----------1-------3-----------1-------0-----------| 
E|1-------------------------------------------------------3-------| 

G|----------------------------------------------------------------| 
D|----------------------------------------------------------------| 
A|------------3-----------0-------------------------------4-------| 
E|1-------------------------------1-------------------------------| 

1:17 

G|------------------------2---------------------------------------| 
D|0-----------3-------------------------------0-----------3-------| 
A|--------------------------------1-------------------------------| 
E|----------------------------------------------------------------| 

G|----------------------------------------------------------------| 
D|--------------------------------------------2-----------5-------| 
A|3-----------------------2-------3-------------------------------| 
E|------------3---------------------------------------------------| 

G|----------------------------------------------------------------| 
D|----------------------------------------------------------------| 
A|------------0-----------3-------------------0-------1---2-------| 
E|1-------------------------------1-------------------------------| 

G|----------------------------------------------------------------| 
D|------------2-----------5-------------------5-----------2-------| 
A|3-------------------------------3-------------------------------| 
E|----------------------------------------------------------------| 

1:28 

G|----------------------------------------------------------------| 
D|--------------------------------------------------------2-------| 
A|------------0-----------3-------0-----------4-------------------| 
E|1---------------------------------------------------------------| 

G|----------------------------------------------------------------| 
D|------------0-----------3-------------------3-------------------| 
A|1-------------------------------1-----------------------4-------| 
E|----------------------------------------------------------------| 

G|----------------------------------------------------------------| 
D|----------------------------------------------------------------| 
A|------------0-----------1-------3-----------1-------0-----------| 
E|1-------------------------------------------------------3-------| 

G|----------------------------------------------------------------| 
D|----------------------------------------------------------------| 
A|------------3-----------0-------------------------------4-------| 
E|1-------------------------------1-------------------------------| 

1:38 

G|------------------------2---------------------------------------| 
D|0-----------3-------------------------------0-----------3-------| 
A|--------------------------------1-------------------------------| 
E|----------------------------------------------------------------| 

G|----------------------------------------------------------------| 
D|----------------------------------------3-------3-------2-------| 
A|3-----------------------2-------3-------------------------------| 
E|------------3---------------------------------------------------| 

G|------------------------2---------------------------------------| 
D|0-----------3-------------------------------0-----------3-------| 
A|--------------------------------1-------------------------------| 
E|----------------------------------------------------------------| 

G|----------------------------------------------------------------| 
D|------------5-----------2-------------------5-----------2-------| 
A|3-------------------------------3-------------------------------| 
E|----------------------------------------------------------------| 

1:49 

G|----------------------------------------------------------------| 
D|--------------------------------------------------------2-------| 
A|------------0-----------3-------0-----------4-------------------| 
E|1---------------------------------------------------------------| 

G|----------------------------------------------------------------| 
D|------------0-----------3-------------------3-------------------| 
A|1-------------------------------1-----------------------4-------| 
E|----------------------------------------------------------------| 

G|----------------------------------------------------------------| 
D|----------------------------------------------------------------| 
A|------------0-------------------3-----------1-------0-----------| 
E|1-------------------------------------------------------3-------| 

G|----------------------------------------------------------------| 
D|----------------------------------------------------------------| 
A|------------0-----------3-------------------------------0---0---| 
E|1-----------------------------------1---1---1---3---3-----------| 

2:00 

G|----------------------------------------------------------------| 
D|------------0-------3---0---3---------------0-------3---0---3---| 
A|1-------------------------------1-------------------------------| 
E|----------------------------------------------------------------| 

G|----------------------------------------------------------------| 
D|----------------------------------------------------------------| 
A|------------0-------3---0---3---------------0-------3---0---3---| 
E|1-------------------------------1-------------------------------| 

G|----------------------------------------------------------------| 
D|----------------------------------------------------------------| 
A|------------2-------5---2---5---------------2-------5---2---5---| 
E|3-------------------------------3-------------------------------| 

G|----------------------------------------------------------------| 
D|------------2-------5---2---5---------------------------2---2---| 
A|3-----------------------------------3---3---3---5---5-----------| 
E|----------------------------------------------------------------| 

2:11 

G|------------2-------5---2---5-----------------------2-------2---| 
D|3-------------------------------0-----------3-----------3-------| 
A|----------------------------------------------------------------| 
E|----------------------------------------------------------------| 

G|----------------------------------------------------------------| 
D|------------0-------3---0---3-----------------------3-----------| 
A|1-------------------------------1-----------4-----------4-------| 
E|----------------------------------------------------------------| 

G|----------------------------------------------------------------| 
D|----------------------------------------------------------------| 
A|------------0-----------1-------3-----------1-------0-----------| 
E|1-------------------------------------------------------3-------| 

G|----------------------------------------------------------------| 
D|----------------------------------------------------------------| 
A|------------3-----------0-------------------------------4-------| 
E|1-------------------------------1-------------------------------| 

2:22 

G|------------------------2---------------------------------------| 
D|0-----------3-------------------------------0-----------3-------| 
A|--------------------------------1-------------------------------| 
E|----------------------------------------------------------------| 

G|----------------------------------------------------------------| 
D|--------------------------------------------5-----------2-------| 
A|3-----------------------2-------3-------------------------------| 
E|------------3---------------------------------------------------| 

G|----------------------------------------------------------------| 
D|----------------------------------------------------------------| 
A|------------0-----------3-------------------0-------1---2-------| 
E|1-------------------------------1-------------------------------| 

G|----------------------------------------------------------------| 
D|------------2-----------5-------------------5-----------2-------| 
A|3-------------------------------3-------------------------------| 
E|----------------------------------------------------------------| 

2:33 

G|----------------------------------------------------------------| 
D|--------------------------------------------------------2-------| 
A|------------0-----------3-------0-----------4-------------------| 
E|1---------------------------------------------------------------| 

G|----------------------------------------------------------------| 
D|------------0-----------3-------------------3-------------------| 
A|1-------------------------------1-----------------------4-------| 
E|----------------------------------------------------------------| 

G|----------------------------------------------------------------| 
D|----------------------------------------------------------------| 
A|------------0-----------1-------3-----------1-------0-----------| 
E|1-------------------------------------------------------3-------| 

G|----------------------------------------------------------------| 
D|----------------------------------------------------------------| 
A|------------0-----------3---------------------------------------| 
E|1-------------------------------1-------1-----------------------| 

G|----------------------------------------------------------------| 
D|----------------------------------------------------------------| 
A|------------0-----------1-------3-----------1-------------------| 
E|1-------------------------------------------------------3-------| 

G|--------------------------------------------| 
D|----3---1---0-------------------------------| 
A|----------------3---1---0-------------------| 
E|----------------------------3---1-------1---| 
		  

auto scroll beats size up size down change color hide chords drawings
tab show chords e-chords YouTube Clip e-chords hide all tabs e-chords go to top tab

share