The Flaming Lips

The Wand

The Flaming Lips

bass

by  BRUNBLAZKOWSKI

save to print version add songbook text version e-mail correct tuner
chordsukulelecavacokeyboardtabbassdrumsharmonicaflute Guitar Pro
close

there isn't a video lesson for this song

chords

The Wand

	  		
Intro- Play nothing. 

Main Riff 
G|-----------| 
D|-----------| 
A|-5-5-5p3---| 
E|--------5--| 


2nd Riff 
G|-----------| 
D|-----------| 
A|-3-3-3p1---| 
E|--------3--| 

3rd Riff 
G|--------------------------------------| 
D|--------------------------------------| 
A|-8-8-8-5--8-8-8-0-8-8-8-5-8-8-8-7-----| 
E|--------------------------------------| 



************************************ 

| p  Pull-off 

************************************ 
		  

auto scroll beats size up size down change color hide chords drawings
tab show chords e-chords YouTube Clip e-chords hide all tabs e-chords go to top tab

share