The Exciters

Its Love That Really Counts

The Exciters

bass

by  TAMAMOREIRA

save to print version add songbook text version e-mail correct tuner
chordsukulelecavacokeyboardtabbassdrumsharmonicaflute Guitar Pro
close

there isn't a video lesson for this song

chords

Its Love That Really Counts

	  		

G|----------------------------------------------------------------| 
D|----------------------------------------------------------------| 
A|----------------------------------------------------------------| 
E|5-----------5---5-------0-------5-----------5---5---5-------4---| 

G|----------------------------------------------------------------| 
D|----------------------------------------------------------------| 
A|------------4---4-------4-------------------4---4---4-------4---| 
E|2-------------------------------2-------------------------------| 

G|----------------------------------------------------------------| 
D|------------7---7---------------------------7---7---7-------6---| 
A|------------------------7---------------------------------------| 
E|5-------------------------------5-------------------------------| 

G|----------------------------------------------------------------| 
D|4-----------4---4---------------------------4---4---4-----------| 
A|------------------------4---------------------------------------| 
E|--------------------------------2-------------------------------| 

0:16 

G|----------------------------------------------------------------| 
D|------------7---7---------------------------7---7---7-------7---| 
A|------------------------7---------------------------------------| 
E|5-------------------------------5-------------------------------| 

G|----------------------------------------------------------------| 
D|4-----------4---4---------------------------4---4---4-----------| 
A|------------------------4-----------------------------------4---| 
E|--------------------------------2-------------------------------| 

G|----------------------------------------------------------------| 
D|------------7---7---------------------------7---7---7-------7---| 
A|------------------------7---------------------------------------| 
E|5-------------------------------5-------------------------------| 

G|----------------------------------------------------------------| 
D|4-----------4---4-----------------------------------------------| 
A|------------------------4-------------------4---4---4-----------| 
E|--------------------------------2---------------------------2---| 

G|--------------------------------------------4---4---4-----------| 
D|------------4---4-----------------------------------------------| 
A|2-------------------------------2---------------------------2---| 
E|------------------------2---------------------------------------| 

G|----------------------------------------------------------------| 
D|----------------------------------------------------------------| 
A|2-----------2---2---------------2-----------2---2---2-----------| 
E|------------------------2-----------------------------------2---| 

0:39 

G|----------------------------------------------------------------| 
D|------------2---2---------------------------2---2---2-----------| 
A|------------------------2---------------------------------------| 
E|0-------------------------------0-------------------------------| 

G|----------------------------------------------------------------| 
D|------------2---2-------2-------------------2---2---------------| 
A|----------------------------------------------------------------| 
E|0-------------------------------0-----------------------0-------| 

G|----------------------------------------------------------------| 
D|------------2---2---------------------------2---2---------------| 
A|------------------------2---------------------------------------| 
E|0-------------------------------0-----------------------0-------| 

G|----------------------------------------------------------------| 
D|------------2---2---------------------------2---2-------2-------| 
A|------------------------2---------------------------------------| 
E|0-------------------------------0-------------------------------| 

0:55 

G|----------------------------------------------------------------| 
D|------------2---2-------2-------------------2---2---------------| 
A|--------------------------------------------------------2-------| 
E|0-------------------------------0-------------------------------| 

G|----------------------------------------------------------------| 
D|------------2---2-------2-------------------2---2---------------| 
A|----------------------------------------------------------------| 
E|0-------------------------------0-----------------------0-------| 

G|----------------------------------------------------------------| 
D|--------------------------------------------7---7---7-----------| 
A|------------7---7-------------------------------------------7---| 
E|5-----------------------0-------5-------------------------------| 

G|----------------------------------------------------------------| 
D|------------9---9-----------------------------------------------| 
A|--------------------------------7-----------7---7---7-----------| 
E|7-----------------------7-----------------------------------0---| 

1:10 

G|----------------------------------------------------------------| 
D|------------7---7---------------------------7---7---7-----------| 
A|------------------------7-----------------------------------7---| 
E|5-------------------------------5-------------------------------| 

G|----------------------------------------------------------------| 
D|4-----------4---4---------------4-----------4---4---4-----------| 
A|------------------------4-----------------------------------4---| 
E|----------------------------------------------------------------| 

G|----------------------------------------------------------------| 
D|------------7---7---------------------------7---7---7-------6---| 
A|------------------------7---------------------------------------| 
E|5-------------------------------5-------------------------------| 

G|----------------------------------------------------------------| 
D|4-----------4---4-----------------------------------------------| 
A|------------------------4-------------------4---4---4-------2---| 
E|--------------------------------2-------------------------------| 

G|------------4---4---------------------------4---4---4-----------| 
D|------------------------4-----------------------------------4---| 
A|2-------------------------------2-------------------------------| 
E|----------------------------------------------------------------| 

G|--------------------------------------------4---4---4-----------| 
D|------------4---4-----------------------------------------------| 
A|2-------------------------------2---------------------------2---| 
E|------------------------2---------------------------------------| 

1:33 

G|----------------------------------------------------------------| 
D|2-----------2---2---------------------------2---2---------------| 
A|----------------------------------------------------------------| 
E|------------------------0-------0-----------------------0-------| 

G|----------------------------------------------------------------| 
D|------------2---2---------------------------2---2---------------| x2 
A|----------------------------------------------------------------| 
E|0-----------------------0-------0-----------------------0-------| 

G|----------------------------------------------------------------| 
D|------------2---2-------2-------------------2---2---------------| 
A|----------------------------------------------------------------| 
E|0-------------------------------0-----------------------0-------| 

1:49 

G|----------------------------------------------------------------| 
D|------------2---2-------2-------------------2---2-------2-------| 
A|----------------------------------------------------------------| 
E|0-------------------------------0-------------------------------| 

G|----------------------------------------------------------------| 
D|------------2---2-------2-------------------2---2---------------| 
A|----------------------------------------------------------------| 
E|0-------------------------------0-----------------------0-------| 

G|--------------------------------------------6---6---------------| 
D|----------------------------------------------------------------| 
A|------------7---7---------------4-----------------------4-------| 
E|5-----------------------0---------------------------------------| 

G|------------6---6-----------------------6---6-------------------| 
D|4-------------------------------4-------------------4---4-------| 
A|------------------------4---------------------------------------| 
E|----------------------------------------------------------------| 

2:04 

G|----------------------------------------------------------------| 
D|------------7---7---------------------------7---7---7-----------| 
A|5-------------------------------5-------------------------------| 
E|------------------------5-----------------------------------5---| 

G|----------------------------------------------------------------| 
D|------------7---7---------------------------7---7---7-------9---| 
A|5-------------------------------5-------------------------------| 
E|------------------------5---------------------------------------| 

G|----------------------------------------------------------------| 
D|7-----------7---7---------------------------7---7---7-------6---| 
A|------------------------7---------------------------------------| 
E|--------------------------------5-------------------------------| 

G|----------------------------------------------------------------| 
D|4-----------4---4---------------------------4---4---4-----------| 
A|------------------------4---------------------------------------| 
E|--------------------------------2---------------------------2---| 

G|------------4---4---------------------------4---4---4-----------| 
D|----------------------------------------------------------------| 
A|2-----------------------2-------2---------------------------2---| 
E|----------------------------------------------------------------| 

G|----------------------------------------------------------------| 
D|2-----------2---2-----------------------------------------------| 
A|--------------------------------2-----------2---2---2-------2---| 
E|------------------------0---------------------------------------| 

G|----------------------------------------------------------------| 
D|----------------------------------------------------------------| 
A|----------------------------------------------------------------| 
E|0---------------------------------------------------------------| 

2:31 

G|----------------------------------------------------------------| 
D|------------7---7---------------------------7---7---7-------7---| 
A|------------------------7---------------------------------------| 
E|5-------------------------------5-------------------------------| 

G|------------6---6---------------------------6---6---6-----------| 
D|4-------------------------------4-------------------------------| 
A|------------------------4-----------------------------------4---| 
E|----------------------------------------------------------------| 

G|----------------------------------------------------------------| 
D|------------7---7---------------------------7---7---7-----------| 
A|------------------------7-----------------------------------7---| 
E|5-------------------------------5-------------------------------| 

G|------------6---6---------------------------6---6---6-----------| 
D|4-------------------------------4-------------------------------| 
A|------------------------4-----------------------------------4---| 
E|----------------------------------------------------------------| 

2:47 

G|----------------------------------------------------------------| 
D|------------7---7---------------------------7---7---7-------6---| 
A|------------------------7---------------------------------------| 
E|5-------------------------------5-------------------------------| 

G|------------6---6-------------------| 
D|4-------------------------------4---| fades out here. 
A|------------------------4-----------| 
E|------------------------------------| 
		  

See also:

bass Bouncing Souls - Anchors Aweigh bass The Stranglers - Dead Ringer bass Rancid - Ruby Soho bass The Bravery - Bad Sun bass Bouncing Souls - Eastside Mags bass Jesus Christ Superstar - Damned For All Time
e-chords

Other versions:

bass The Exciters - Its Love That Really Counts
auto scroll beats size up size down change color hide chords drawings
tab show chords e-chords YouTube Clip e-chords hide all tabs e-chords go to top tab

share