The Exciters

Hes Got The Power

The Exciters

bass

by  IRONPOWER4EVER

save to print version add songbook text version e-mail correct tuner
chordsukulelecavacokeyboardtabbassdrumsharmonicaflute Guitar Pro
close

there isn't a video lesson for this song

chords

Hes Got The Power

	  		
G|------------------------| 
D|3-------3-------3-------| 
A|------------------------| 
E|------------------------| 

G|----------------------------------------------------------------| 
D|5---------------5---------------5---------------5-----------4---| 
A|--------5---------------5---------------5---------------5-------| 
E|----------------------------------------------------------------| 

G|----------------------------------------------------------------| 
D|5---------------5---------------5---------------5-----5-----3---| 
A|--------5---------------5---------------5-----------------------| 
E|----------------------------------------------------------------| 

G|----------------------------------------------------------------| 
D|1---------------1---------------1---------------1-------1---3---| 
A|--------1---------------1---------------1-----------------------| 
E|----------------------------------------------------------------| 

G|3---------------------------3-----------------------------------| 
D|--------0---------------0-------5---------------5-------5---3---| 
A|----------------1-----------------------5-----------------------| 
E|----------------------------------------------------------------| 

G|----------------------------------------------------------------| 
D|1---------------1-----------1-------------------3-----------3---| 
A|--------1---------------1-------3-----------------------5-------| 
E|----------------------------------------3-----------------------| 

G|--------------------------------| 
D|5---------------5---------------| 
A|--------5---------------5---5---| 
E|--------------------------------| 

0:25 

G|----------------------------------------------------------------| 
D|5---------------5---------------5---------------5-----------4---| 
A|--------5---------------5---------------5---------------5-------| 
E|----------------------------------------------------------------| 

G|----------------------------------------------------------------| 
D|5---------------5---------------5---------------5-------5---3---| 
A|--------5---------------5---------------5-----------------------| 
E|----------------------------------------------------------------| 

G|----------------------------------------------------------------| 
D|1---------------1---------------1---------------1-------1---3---| 
A|--------1---------------1---------------1-----------------------| 
E|----------------------------------------------------------------| 

G|3---------------------------3-----------------------------------| 
D|--------0---------------0-------5---------------5-------5---3---| 
A|----------------1-----------------------5-----------------------| 
E|----------------------------------------------------------------| 

G|----------------------------------------------------------------| 
D|1---------------1-----------1-------------------3-----------3---| 
A|--------1---------------1-------3-----------------------3-------| 
E|----------------------------------------3-----------------------| 

G|3---------------3-------3---2---| 
D|--------3-----------------------| 
A|--------------------------------| 
E|--------------------------------| 

0:47 

G|----------------------------------------------------------------| 
D|5---------------5---------------5---------------5-----------5---| 
A|--------5---------------5---------------5---------------5-------| 
E|----------------------------------------------------------------| 

G|----------------------------------------------------------------| 
D|--------5---------------5---------------5---------------5-------| 
A|3---------------3---------------3---------------3-----------3---| 
E|----------------------------------------------------------------| 

G|----------------------------------------------------------------| 
D|--------------------------------------------------------7-------| 
A|--------7---------------7---------------7-----------------------| 
E|5---------------5---------------5---------------5---------------| 

G|----------------------------------------------------------------| 
D|--------------------------------3-------3-------3-------3-------| 
A|5---------------5-----------------------------------------------| 
E|--------5---------------5---------------------------------------| 

1:04 

G|----------------------------------------------------------------| 
D|5---------------5---------------5---------------5-----------4---| 
A|--------5---------------5---------------5---------------5-------| 
E|----------------------------------------------------------------| 

G|----------------------------------------------------------------| 
D|5---------------5---------------5---------------5-------5---3---| 
A|--------5---------------5---------------5-----------------------| 
E|----------------------------------------------------------------| 

G|----------------------------------------------------------------| 
D|1---------------1---------------1---------------1-------1---3---| 
A|--------1---------------1---------------1-----------------------| 
E|----------------------------------------------------------------| 

G|3---------------------------3-----------------------------------| 
D|--------0---------------0-------5---------------5-------5---3---| 
A|----------------1-----------------------5-----------------------| 
E|----------------------------------------------------------------| 

G|----------------------------------------------------------------| 
D|1---------------1-----------1-------------------3-----------3---| 
A|--------1---------------1-------3-----------------------3-------| 
E|----------------------------------------3-----------------------| 

G|3---------------3-------3---2---| 
D|--------3-----------------------| 
A|--------------------------------| 
E|--------------------------------| 

1:27 

G|----------------------------------------------------------------| 
D|5---------------5---------------5---------------5---------------| 
A|--------5---------------5---------------5---------------5-------| 
E|----------------------------------------------------------------| 

G|----------------------------------------------------------------| 
D|----------------------------------------------------------------| 
A|3---------------3---------------3---------------3-----------3---| 
E|--------3---------------3---------------3---------------3-------| 

G|----------------------------------------------------------------| 
D|----------------------------------------------------------------| 
A|--------7---------------7---------------7---------------7-------| 
E|5---------------5---------------5---------------5-----------5---| 

G|----------------------------------------------------------------| 
D|--------------------------------3-------3-------3-------3-------| 
A|5---------------5-----------------------------------------------| 
E|--------5---------------5---------------------------------------| 

1:43 

G|----------------------------------------------------------------| 
D|5---------------5---------------5---------------5-----------4---| 
A|--------5---------------5---------------5---------------5-------| 
E|----------------------------------------------------------------| 

G|----------------------------------------------------------------| 
D|5---------------5---------------5---------------5-------5---3---| 
A|--------5---------------5---------------5-----------------------| 
E|----------------------------------------------------------------| 

G|----------------------------------------------------------------| 
D|1---------------1---------------1---------------1-------1---3---| 
A|--------1---------------1---------------1-----------------------| 
E|----------------------------------------------------------------| 

G|3---------------------------------------------------------------| 
D|--------0---------------0-------5---------------5-------5---3---| 
A|----------------1-----------------------5-----------------------| 
E|----------------------------------------------------------------| 

G|----------------------------------------------------------------| 
D|1---------------1-------------------------------3-----------3---| 
A|--------1---------------1-------3-----------------------3-------| 
E|----------------------------------------3-----------------------| 

2:04 

G|3---------------3-------3---2-----------------------------------| 
D|--------3-----------------------5---------------5-----------5---| 
A|----------------------------------------5---------------5-------| 
E|----------------------------------------------------------------| 

G|3---------------3-----------3-----------------------------------| 
D|--------3---------------3-------5---------------5-----------5---| 
A|----------------------------------------5---------------5-------| 
E|----------------------------------------------------------------| 

G|3---------------3-----------------------------------------------| 
D|--------3-------------------3---5---------------5-----------5---| 
A|----------------------------------------5---------------5-------| 
E|----------------------------------------------------------------| 

G|3---------------3-------3---------------| 
D|--------3-----------------------5-------| fades out here. 
A|----------------------------------------| 
E|----------------------------------------| 
		  

See also:

bass Bouncing Souls - Anchors Aweigh bass The Stranglers - Dead Ringer bass Rancid - Ruby Soho bass The Bravery - Bad Sun bass Bouncing Souls - Eastside Mags bass Jesus Christ Superstar - Damned For All Time
e-chords

Other versions:

bass The Exciters - Hes Got The Power
auto scroll beats size up size down change color hide chords drawings
tab show chords e-chords YouTube Clip e-chords hide all tabs e-chords go to top tab

share