The Emeralds

Dancing Alone

The Emeralds

bass

by  HEBEALMEIDA

save to print version add songbook text version e-mail correct tuner
chordsukulelecavacokeyboardtabbassdrumsharmonicaflute Guitar Pro
close

there isn't a video lesson for this song

chords

Dancing Alone

	  		
0:24 

G|------------------------------------------------------------------------------------------------| 
D|5-----------5-----------5-----------5-------4---2-----------------------2-----------2---2-------| 
A|--------------------5-----------------------------------------------2-----------------------5---| 
E|------------------------------------------------------------------------------------------------| 

G|------------------------------------------------------------------------------------------------| 
D|----------------------------------------------------------------------------------------2---4---| 
A|3-----------3-----------3---------------3---4---5-----------5-----------5-------5---5-----------| 
E|--------------------3-----------------------------------------------5---------------------------| 

0:39 

G|------------------------------------------------------------------------------------------------| 
D|5-----------5-----------5-----------5---5---4---2-----------2-----------2-----------2---1---0---| 
A|--------------------5-----------------------------------------------2---------------------------| 
E|------------------------------------------------------------------------------------------------| 

G|------------------------------------------------------------------------------------------------| 
D|------------------------------------------------------------------------------------------------| 
A|3-----------3-----------3-----------3---3---4---5-----------5-----------5-----------------------| 
E|--------------------3-----------------------------------------------5---------------------------| 

0:55 

G|------------------------------------------------------------------------------------------------| 
D|5-----------5-----------5-----------5---4---3---2-----------2-----------2-----------2---1---0---| 
A|--------------------5-----------------------------------------------2---------------------------| 
E|------------------------------------------------------------------------------------------------| 

G|------------------------------------------------------------------------------------------------| 
D|----------------------------------------------------------------------------------------2---5---| 
A|3-----------3-----------3-----------3---3---4---5-----------5-----------5-------5---5-----------| 
E|--------------------3-----------------------------------------------5---------------------------| 

1:12 

G|------------------------------------------------------------------------------------------------| 
D|5-----------5-----------5-----------5---4---3---2-----------2-----------2-----------2---1---0---| 
A|--------------------5-----------------------------------------------2---------------------------| 
E|------------------------------------------------------------------------------------------------| 

G|------------------------------------------------------------------------------------------------| 
D|------------------------------------------------------------------------------------------------| 
A|3-----------3-----------3-----------3---3---4---5-----------5-----------5-------5---5---3-------| 
E|--------------------3-----------------------------------------------5---------5-------------5---| 

1:28 

G|------------------------------------------------------------------------------------------------| 
D|------------5-----------5-----------5---4---3---2-----------------------2---------------1---0---| 
A|--------------------5-----------------------------------------------2---------------------------| 
E|3-----------------------------------------------------------------------------------------------| 

G|------------------------------------------------------------------------------------------------| 
D|----------------------------------------------------------------------------------------2---4---| 
A|3-----------3-----------3-----------3---3---4---5-----------5-----------5-------5---5-----------| 
E|--------------------3-----------------------------------------------5---------------------------| 

1:44 

G|------------------------------------------------------------------------------------------------| 
D|------------5-------2---------------5-------2---5-----------5-----------5-----------5-------2---| 
A|3-----------------------3-------------------------------------------5---------------------------| 
E|------------------------------------------------------------------------------------------------| 

G|------------------------------------------------------------------------------------------------| 
D|------------5-------2-------------------------------------------------------------------2---4---| 
A|3-----------------------3---------------3---4---5-----------------------5-------5---5-----------| 
E|------------------------------------------------------------5-----------------------------------| 

2:00 

G|------------------------------------------------------------------------------------------------| 
D|5-----------5-----------5-----------5---4---3---2-----------2-----------2-----------2---1---0---| 
A|--------------------5-----------------------------------------------2---------------------------| 
E|------------------------------------------------------------------------------------------------| 

G|------------------------------------------------------------------------------------------------| 
D|------------------------------------5---2-------------------------------------------------------| 
A|3-----------3-----------3-------------------3---5-----------5-----------5-----------------------| 
E|--------------------3-----------------------------------------------5---------------------------| 

2:15 

G|------------------------------------------------------------------------------------------------| 
D|5-----------5-----------5-----------5---4---3---2-----------2-----------2-----------2---1---0---| 
A|--------------------5-----------------------------------------------2---------------------------| 
E|------------------------------------------------------------------------------------------------| 

G|------------------------------------------------------------------------------------------------| 
D|----------------------------------------------------------------------------------------2---5---| 
A|3-----------3-----------3-----------3---3---4---5-----------5-----------5-------5---5-----------| 
E|--------------------3-----------------------------------------------5---------------------------| 

2:31 

G|------------------------------------------------------------------------------------------------| 
D|5-----------5-----------5-----------5---4---3---2-----------2-----------2-------2-------1---0---| 
A|--------------------5-----------------------------------------------2---------------------------| 
E|------------------------------------------------------------------------------------------------| 

G|----------------------------------------------------------------| 
D|----------------------------------------------------------------| fades out here. 
A|3-----------3-----------3-----------3---3---4---5-----------5---| 
E|--------------------3-------------------------------------------| 
		  

See also:

bass Deep Purple - Smoke On The Waterr bass Deep Purple - Knocking At Your Back Door bass Deep Purple - Space Truckin' bass Deep Purple - Burn Ver.(2) bass Deep Purple - Black Night bass Deep Purple - Ted The Mechanic
e-chords

Other versions:

bass The Emeralds - Dancing Alone bass The Emeralds - Dancing Alone
auto scroll beats size up size down change color hide chords drawings
tab show chords e-chords YouTube Clip e-chords hide all tabs e-chords go to top tab

share